Oops, an error
Loading. Please wait.

Frogs On The Phone Bass Tab

36 views 1 this week
no commentswrite comment
1 2 3 4 5
please rate
add to favorites
launch autoscroll
font size
0
reset
guitar tuner
Autoscroll
slow
fast
+/-
esc
set tempo
stop
Help us to improve Ultimate-Guitar.com Take our survey!
×
GAZNEVADA - FROGS ON THE PHONE
ALBUM: DRESSED TO KILL (1981)


VERSE

E ------------------------------------|
A --5-5---------3-3-------------------|
D ------4-4-5-5-----2-2-3-3-4-4-------|
G ------------------------------2-2---|

E ------------------------------------|
A --5-5---------3-3-------------------|
D ------4-4-5-5-----2-2-3-3-4-4-------|
G ------------------------------2-2---|


PLAY VERY VERY FAST!!!

JAH WOBBLE IS GOD!!!
Suggest correction
Give kudos to tab author, rate the tab!
1 2 3 4 5
comments
print report bad tab
guest
You may want to rate the tab now too:
select rating
Wanna post a correction for this tab? Suggest correction