Oops, an error
Loading. Please wait.

A Pleno Tab

25 views 1 this week
no commentswrite comment
1 2 3 4 5
3 more votes to show rating
add to favorites
launch autoscroll
font size
0
reset
how to read this tab
guitar tuner
Autoscroll
slow
fast
+/-
esc
set tempo
stop
Help us to improve Ultimate-Guitar.com Take our survey!
×
Intro:
-----

C5 G5 A5 F5
C5 G5 A5

e|-------8-8-8-8-8-8-8-----
b|--------8-8-8-8-8-8-8----
g|-------------------------
d|-------------------------
a|-------------------------
e|-------------------------

e|--8-8-8-8--7-7-7-7--8-8-8-8--10-10-10-10-----
b|---8-8-8-8--8-8-8-8--8-8-8-8---8--8--8--8----
g|---------------------------------------------  (bis x2)
d|---------------------------------------------
a|---------------------------------------------
e|---------------------------------------------


Estrofa:
-------

e|----------8----
b|------8--------
g|----5--(5)-----
d|---------------
a|---------------
e|---------------

   por todos lados miro impactado
   por cosas que soñaron que antes habia encontrado
   muchas veces estuve asi cosas sin sentido me estaban preocupando
   pero ahora no importa necesite vivirlas por que hoy estoy aca


C5 G5 A5 F5

Coro:
----
      C5     G5     A5     F5
   estoy a pleno vivir a pleno
 C5       G5          A5   F5
   siempre siempre a pleno

estrofa:
-------

   que bueno es poder estar asi se muy bien
   que la vida no es siempre color de rosa
   pero este momento es bueno para mi abro los ojos lo mas
   lo mas que puedo
   y brindo conmigo mismo por mi vida por mi vida
   por que ayer no fue igual
   tuve un bajon de aquellos que tienen la misma la misma life
   que hoy me da una razon para sonreir


coro: (bis x2)
----

uhhh....

e|-----------------------------------------------
b|-----------------------------------------------
g|-------------------------------2--2--2-2-------  (bis x2)
d|-------------------------------3--3--3-3-------
a|----------------1------1-------3--3--3-3-------
e|--3--(3)-1-3-(3)---3-----3-2-1-1--1--1-1-------


coro: (bis x4)
----

        º================================º
        |    --> c R i S t i 4 N <--     |
        | cristian_alvarez3@ |
        º================================º
Suggest correction
Give kudos to tab author, rate the tab!
1 2 3 4 5
comments
print report bad tab
guest
You may want to rate the tab now too:
select rating
Wanna post a correction for this tab? Suggest correction