Oops, an error
Loading. Please wait.

Arbol Rojo Tab

26 views 1 this week
no commentswrite comment
1 2 3 4 5
3 more votes to show rating
add to favorites
launch autoscroll
font size
0
reset
how to read this tab
guitar tuner
Autoscroll
slow
fast
+/-
esc
set tempo
stop
Help us to improve Ultimate-Guitar.com Take our survey!
×
Intro guitarra 1

|---------2-----2-----2----------------2------2------------------------------------2------2---|
|-------3--3------------3----------------2-----------2-3-2--3-2-0-2-0--------3---3------------|
|-----4------4-----4------4--------2------2--------2------2-------------------4------4--------|
|---4-------------4----------------4---------------2---------------------------4--------------|
|-2-------------------------------4---------------0---------------------------2---------------|
|--------------------------------2------------------------------------------------------------|
guitarra 2  (esto se hace con la intro de la guitarra 1)
|-------------------------------------------------------------------------------------|
|-------------------------------------------------------------------------------------|
|-------------------------------------------------------------------------------------|
|--9---7h9----11-----9h11p9-----------------------------------------------------------|
|-------------------------------------------------------- ----------------------------|
|-------------------------------------------------------------------------------------|

las notas del verso son:bm fm# A bm

g 2 solo
|-----------------------------------------------------------------10---------------------------|
|-10b----10-8-7-----------------------------------------------------10--10---12--10-8----------|
|------------------9b?9p7---7--987---------------7-9-9b---------------------------------9b-----|
|-----------------------------9---------987------9---------------------------------------------|
|--------------------------------------------987--------------- -------------------------------|
|----------------------------------------------------------------------------------------------|
Suggest correction
Give kudos to tab author, rate the tab!
1 2 3 4 5
comments
print report bad tab
guest
You may want to rate the tab now too:
select rating
Wanna post a correction for this tab? Suggest correction