Oops, an error
Loading. Please wait.

Huellas Tab

17 views 1 this week
no commentswrite comment
1 2 3 4 5
3 more votes to show rating
add to favorites
launch autoscroll
font size
0
reset
how to read this tab
guitar tuner
×
Best way to learn
"Huellas"
Autoscroll
slow
fast
+/-
esc
set tempo
stop
Intro:
   A             G      G/F#   Bm           A
e|-5----------------3-----3---------2-------5------3------3-
B|-5----------------3-----3-----3-----3---3-5------3------3-
G|-6-------6h-6-----0-----0---4---4-----4---6------0------0-
D|-7-----7--------0-----0-------------------7----0------0---
A|-7--7---------------------2---------------7---------------
E|-5------------3-----2---------------------5--3------2-----

A                                 G         D      A
Ocultos en su interior, ojos que miran sin expresión,
A                       G       D    A
Ciegos de corazón, nada bueno vendrá.
A                           G     D    A
Tampoco siento rencor pero si tengo memoria,
A                                 G          D     A
Yo no se si es por dolor, desde aquí no muestra nada.

ESTRIBILLO: A
(ES COMO LA INTRO)
     A             G      G/F#   Bm             A
  e|-5----------------3-----3----------2--------5--
  B|-5----------------3-----3------3-----3---3--5--
  G|-6-------6h-6-----0-----0----4---4-----4----6--
  D|-7-----7--------0-----0---------------------7--
  A|-7--7----------------------2----------------7--
  E|-5------------3-----2-----------------------5--

No se puede, no se quiere seguir huellas de lluvia,

    A                  G       G/F#  D            A
 e|-5---------------------3------3---2-----------5-
 B|-5---------------------3------3---3-----------5-
 G|-6---------------------0------0---2-----------6-
 D|-7-------------------0------0-----0-----------7-
 A|-7--------------------------------------------7-
 E|-5-----------------3------2-------------------5-
No se puede, no se quiere no hay razón, no hay razón.

A-G-D

A                               G     D      A
Metido en mentiras ajenas, lecciones para el alma,
A                            G     D      A
Hagan lo que quieran y no esperen mas de mi.
D           A   D                        A
Dame una señal, empezando de cero todo puede pasar,
D                   Bm              E
Empezando de cero aparecen nuevos aires.

ESTRIBILLO II: A
(ES COMO LA INTRO)
     A             G      G/F#   Bm           A
  e|-5----------------3-----3----------2-------5-
  B|-5----------------3-----3------3-----3---3-5-
  G|-6-------6h-6-----0-----0----4---4-----4---6-
  D|-7-----7--------0-----0--------------------7-
  A|-7--7----------------------2---------------7-
  E|-5------------3-----2----------------------5-

No se puede, no se quiere seguir huellas de lluvia,

     A                  G       G/F#  Bm
  e|-5---------------------3------3----------2-------
  B|-5---------------------3------3------3-----3---3-
  G|-6---------------------0------0----4---4-----4---
  D|-7-------------------0------0--------------------
  A|-7-------------------------------2---------------
  E|-5-----------------3------2----------------------
No se puede, no se quiere no hay razón para intentar.

ESTRIBILLO FINAL: A
(ES COMO LA INTRO)
     A             G      G/F#   Bm           A
  e|-5----------------3-----3----------2-------5-
  B|-5----------------3-----3------3-----3---3-5-
  G|-6-------6h-6-----0-----0----4---4-----4---6-
  D|-7-----7--------0-----0--------------------7-
  A|-7--7----------------------2---------------7-
  E|-5------------3-----2----------------------5-
No se puede, no se quiere seguir huellas de lluvia,

   A                  G       G/F#  D            A  G D A
e|-5---------------------3------3---2------------5--3-2-5
B|-5---------------------3------3---3------------5--3-3-5
G|-6---------------------0------0---2------------6--0-2-6
D|-7-------------------0------0-----0------------7--0-0-7
A|-7---------------------------------------------7--2---7
E|-5-----------------3------2--------------------5--3---5
No se puede, no se quiere no hay razón para intentaaaaaaar.

G   D        A        G     D      A       G D
    Uuuuuuhh uhhhh..        Ooooooh ohhh.
h=vibrato

PD: Si lo queiren rasgar todo al tema haganlo.
La 2da guitarra es una guitarra electroacustica que va rasgando.
Son los acordes que puse en las estrofas porque la primer guitarra
va arpegiando y no me gaste para sacar ese especie de arpegio que hace.
El tema está perfecto Si no lo pueden tocar consulten.

Dudas,  consultas y peticiones a: gonzalomele@
Suggest correction
Give kudos to tab author, rate the tab!
1 2 3 4 5
comments
print report bad tab
guest
You may want to rate the tab now too:
select rating
Wanna post a correction for this tab? Suggest correction