Oops, an error
Loading. Please wait.

Big Women Bass Tab

by GBH
4 views 1 this week
no commentswrite comment
1 2 3 4 5
3 more votes to show rating
add to favorites
launch autoscroll
font size
0
reset
guitar tuner
Autoscroll
slow
fast
+/-
esc
set tempo
stop
Help us to improve Ultimate-Guitar.com Take our survey!
×
Author
Difficulty
novice
                             GBH - BIG WOMEN

Tabbed by: Rottney (reconssuck)
E-mail: reconssuck@hotmail.de

Artist: GBH
Song: Big Women
Album: City Baby Attacked By Rats (1982)


[Intro]

G|----------|
D|----------|
A|----------|
E|-\7-7-7---|



[Main Riff] x3

G|-------|-------|-------|--------|
D|-------|-------|-------|--------|
A|-------|-7-7-7-|-------|--------|
E|-7-7-7-|-------|-7-7-7-|-5-5-5--|

[Variation]

G|-------|-------|-----|
D|-------|-------|-----|
A|-------|-7-7-7-|-----|
E|-7-7-7-|-------|--7--|

[Main Riff] x3

G|-------|-------|-------|--------|
D|-------|-------|-------|--------|
A|-------|-7-7-7-|-------|--------|
E|-7-7-7-|-------|-7-7-7-|-5-5-5--|

[Variation] x2

G|-------|-------|-----|
D|-------|-------|-----|
A|-------|-7-7-7-|-----|
E|-7-7-7-|-------|--7--|


[Main Riff] x3

G|-------|-------|-------|--------|
D|-------|-------|-------|--------|
A|-------|-7-7-7-|-------|--------|
E|-7-7-7-|-------|-7-7-7-|-5-5-5--|

[Variation] x2

G|-------|-------|-----|
D|-------|-------|-----|
A|-------|-7-7-7-|-----|
E|-7-7-7-|-------|--7--|


[Main Riff] x3

G|-------|-------|-------|--------|
D|-------|-------|-------|--------|
A|-------|-7-7-7-|-------|--------|
E|-7-7-7-|-------|-7-7-7-|-5-5-5--|

[Variation] x2

G|-------|-------|-----|
D|-------|-------|-----|
A|-------|-7-7-7-|-----|
E|-7-7-7-|-------|--7--|


[Main Riff] x3

G|-------|-------|-------|--------|
D|-------|-------|-------|--------|
A|-------|-7-7-7-|-------|--------|
E|-7-7-7-|-------|-7-7-7-|-5-5-5--|

[Variation] x2

G|-------|-------|-----|
D|-------|-------|-----|
A|-------|-7-7-7-|-----|
E|-7-7-7-|-------|--7--|

[Main Riff] x3

G|-------|-------|-------|--------|
D|-------|-------|-------|--------|
A|-------|-7-7-7-|-------|--------|
E|-7-7-7-|-------|-7-7-7-|-5-5-5--|

[Variation] x2

G|-------|-------|-----|
D|-------|-------|-----|
A|-------|-7-7-7-|-----|
E|-7-7-7-|-------|--7--|

[Main Riff] x3

G|-------|-------|-------|--------|
D|-------|-------|-------|--------|
A|-------|-7-7-7-|-------|--------|
E|-7-7-7-|-------|-7-7-7-|-5-5-5--|

(song breaks apart after that)


***********************************
| \ Slide down
***********************************


That's all
Enjoy and Rate

Suggest correction
Give kudos to tab author, rate the tab!
1 2 3 4 5
comments
print report bad tab
guest
You may want to rate the tab now too:
select rating
Wanna post a correction for this tab? Suggest correction