Oops, an error
Loading. Please wait.

Boston Babies Bass Tab

by GBH
4 views 1 this week
no commentswrite comment
1 2 3 4 5
3 more votes to show rating
add to favorites
launch autoscroll
font size
0
reset
guitar tuner
Autoscroll
slow
fast
+/-
esc
set tempo
stop
Help us to improve Ultimate-Guitar.com Take our survey!
×
Author
Difficulty
novice
                             GBH - BOSTON BABIES

Tabbed by: Rottney (reconssuck)
E-mail: reconssuck@hotmail.de

Artist: GBH
Song: Boston Babies
Album: City Baby Attacked by Rats (1982)




[Main Riff] x6

G|-------------|-------------|---------------|--------------------|
D|-------------|-------------|---------------|--------------------|
A|-0-0-0-0-0-0-|-3-3-3-3-3-3-|-5-5-5-5-5-5-5-|-5-5-5-5-5-5-5------|
E|-------------|-------------|---------------|--------------------|


[Fill] x2

G|-------|--------|----------------|
D|-------|--------|----------------|
A|-0--0--|-3---3--|--5-5-5-5-5-5-5-|
E|-------|--------|----------------|


[Main Riff] x4

G|-------------|-------------|---------------|--------------------|
D|-------------|-------------|---------------|--------------------|
A|-0-0-0-0-0-0-|-3-3-3-3-3-3-|-5-5-5-5-5-5-5-|-5-5-5-5-5-5-5------|
E|-------------|-------------|---------------|--------------------|


[Fill] x3

G|-------|--------|----------------|
D|-------|--------|----------------|
A|-0--0--|-3---3--|--5-5-5-5-5-5-5-|
E|-------|--------|----------------|


[Main Riff] x14

G|-------------|-------------|---------------|--------------------|
D|-------------|-------------|---------------|--------------------|
A|-0-0-0-0-0-0-|-3-3-3-3-3-3-|-5-5-5-5-5-5-5-|-5-5-5-5-5-5-5------|
E|-------------|-------------|---------------|--------------------|

(song breaks apart after that, but ends on)

[End]

G|-----------|
D|-----------|
A|-----------|
E|-5--5------|



That's all
Enjoy and Rate

Suggest correction
Give kudos to tab author, rate the tab!
1 2 3 4 5
comments
print report bad tab
guest
You may want to rate the tab now too:
select rating
Wanna post a correction for this tab? Suggest correction