Oops, an error
Loading. Please wait.

Boston Babies Tab

by GBH
1 view 1 this week
no commentswrite comment
1 2 3 4 5
3 more votes to show rating
add to favorites
launch autoscroll
font size
0
reset
how to read this tab
guitar tuner
Autoscroll
slow
fast
+/-
esc
set tempo
stop
Help us to improve Ultimate-Guitar.com Take our survey!
×
Author
Difficulty
novice
Artist: G.B.H
Song: Boston Babies
Tabbed by: Rottney (reconssuck)
E-mail: reconssuck@hotmail.de

[Main Riff] x6
e|-------------|-------------|------------------------|
B|-------------|-------------|------------------------|
G|-------------|-------------|------------------------|
D|-2-2-2-2-2-2-|-5-5-5-5-5-5-|-7-7-7-7-7-7-7-7-7-7-7--|
A|-0-0-0-0-0-0-|-3-3-3-3-3-3-|-5-5-5-5-5-5-5-5-5-5-5--|
E|-------------|-------------|------------------------|

[Fill] x2
e|-------|-------|----------------|
B|-------|-------|----------------|
G|-------|-------|----------------|
D|-2--2--|-5--5--|-7-7-7-7-7-7-7--|
A|-0--0--|-3--3--|-5-5-5-5-5-5-5--|
E|-------|-------|----------------|

[Main Riff] x4
e|-------------|-------------|------------------------|
B|-------------|-------------|------------------------|
G|-------------|-------------|------------------------|
D|-2-2-2-2-2-2-|-5-5-5-5-5-5-|-7-7-7-7-7-7-7-7-7-7-7--|
A|-0-0-0-0-0-0-|-3-3-3-3-3-3-|-5-5-5-5-5-5-5-5-5-5-5--|
E|-------------|-------------|------------------------|

[Fill] x3
e|-------|-------|----------------|
B|-------|-------|----------------|
G|-------|-------|----------------|
D|-2--2--|-5--5--|-7-7-7-7-7-7-7--|
A|-0--0--|-3--3--|-5-5-5-5-5-5-5--|
E|-------|-------|----------------|

[Main Riff] x14
e|-------------|-------------|------------------------|
B|-------------|-------------|------------------------|
G|-------------|-------------|------------------------|
D|-2-2-2-2-2-2-|-5-5-5-5-5-5-|-7-7-7-7-7-7-7-7-7-7-7--|
A|-0-0-0-0-0-0-|-3-3-3-3-3-3-|-5-5-5-5-5-5-5-5-5-5-5--|
E|-------------|-------------|------------------------|

(song breaks apart after that but ends on)

[Outro]
e|-----------|
B|-----------|
G|-----------|
D|-----------|
A|-7--7------|
E|-5--5------|
Suggest correction
Give kudos to tab author, rate the tab!
1 2 3 4 5
comments
print report bad tab
guest
You may want to rate the tab now too:
select rating
Wanna post a correction for this tab? Suggest correction