Oops, an error
Loading. Please wait.

Catch 23 bass

by GBH
10 views 1 this week
no commentswrite comment
1 2 3 4 5
2 more votes to show rating
add to favorites
×
Save as Personal and add changes to this tab that will be seen only by you. Learn more ›
×
You can save this tab as Personal to edit and correct it or add notes. All changes will be seen only by you. Learn more »
launch autoscroll
font size
0
reset
guitar tuner
edit
Autoscroll
slow
fast
+/-
esc
set tempo
stop
[Intro]
G|---------------------------------------------------------|------------------------------------|
D|---------------------------------------------------------|------------------------------------|
A|------(Guitar-Only)--------------------------------------|------------------------------------|
E|---------------------------------------------------------|------------------------------------|

G|---------------------------------------------------------|------------------------------------|
D|---------------5-7----------------5-7----------------5-7-|-5-5-5-5--7-7-7-7--5-5-5-5--7-7-7-7-|
A|-5-5-5-x-5-5-5------5-5-5-x-5-5-5------5-5-5-x-5-5-5-----|------------------------------------|
E|---------------------------------------------------------|------------------------------------|

[Verse]
("You beat us down, but we came back...")
G|---------------------------------------|------------------------------------|
D|---------------5-7----------------5-7--|-5-5-5-5--7-7-7-7--5-5-5-5--7-7-7-7-|
A|-5-5-5-x-5-5-5------5-5-5-x-5-5-5------|------------------------------------|
E|---------------------------------------|------------------------------------|

G|---------------------------------------|------------------------------------|
D|---------------5-7----------------5-7--|-5-5-5-5--7-7-7-7--5-5-5-5--7-7-7-7-|
A|-5-5-5-x-5-5-5------5-5-5-x-5-5-5------|------------------------------------|
E|---------------------------------------|------------------------------------|

[Chorus]
 ("The missing rung, We all knew,       We survived,      Catch 22")
G|------------------------------------|-------------------------------------|
D|------------------------------------|-------------------------------------|
A|-2-2-2-2-2-2--5-4--2-2-2-2-2-2--5-4-|-2-2-2-2-2-2--5-4--7-7-7-7-7-7-7-7-7-|
E|------------------------------------|-------------------------------------|

 ("Now we're prepared and that's the key, we'll survive, Catch 23")
G|------------------------------------|-------------------------------------|
D|------------------------------------|-------------------------------------|
A|-2-2-2-2-2-2--5-4--2-2-2-2-2-2--5-4-|-2-2-2-2-2-2--5-4--7-7-7-7-7-7-7-7-7-|
E|------------------------------------|-------------------------------------|

[Verse]
G|--------------------------------------|-------------------------------------|
D|---------------5-7----------------5-7-|---------------5-7---------------5-7-|
A|-5-5-5-x-5-5-5------5-5-5-x-5-5-5-----|-5-5-5-x-5-5-5-----5-5-5-x-5-5-5-----|
E|--------------------------------------|-------------------------------------|

("Organisation, a word you've never heard...")
G|---------------------------------------|------------------------------------|
D|---------------5-7----------------5-7--|-5-5-5-5--7-7-7-7--5-5-5-5--7-7-7-7-|
A|-5-5-5-x-5-5-5------5-5-5-x-5-5-5------|------------------------------------|
E|---------------------------------------|------------------------------------|

G|---------------------------------------|------------------------------------|
D|---------------5-7----------------5-7--|-5-5-5-5--7-7-7-7--5-5-5-5--7-7-7-7-|
A|-5-5-5-x-5-5-5------5-5-5-x-5-5-5------|------------------------------------|
E|---------------------------------------|------------------------------------|

[Chorus]
 ("The missing rung, We all knew,       We survived,      Catch 22")
G|------------------------------------|-------------------------------------|
D|------------------------------------|-------------------------------------|
A|-2-2-2-2-2-2--5-4--2-2-2-2-2-2--5-4-|-2-2-2-2-2-2--5-4--7-7-7-7-7-7-7-7-7-|
E|------------------------------------|-------------------------------------|

 ("Now we're prepared and that's the key, we'll survive, Catch 23")
G|------------------------------------|-------------------------------------|
D|------------------------------------|-------------------------------------|
A|-2-2-2-2-2-2--5-4--2-2-2-2-2-2--5-4-|-2-2-2-2-2-2--5-4--7-7-7-7-7-7-7-7-7-|
E|------------------------------------|-------------------------------------|

[Solo]
G|--------------------------------------|-------------------------------------|
D|---------------5-7----------------5-7-|---------------5-7---------------5-7-|
A|-5-5-5-x-5-5-5------5-5-5-x-5-5-5-----|-5-5-5-x-5-5-5-----5-5-5-x-5-5-5-----|
E|--------------------------------------|-------------------------------------|

G|--------------------------------------|-------------------------------------|
D|---------------5-7----------------5-7-|---------------5-7---------------5-7-|
A|-5-5-5-x-5-5-5------5-5-5-x-5-5-5-----|-5-5-5-x-5-5-5-----5-5-5-x-5-5-5-----|
E|--------------------------------------|-------------------------------------|

G|--------------------------------------|-------------------------------------|
D|---------------5-7----------------5-7-|---------------5-7---------------5-7-|
A|-5-5-5-x-5-5-5------5-5-5-x-5-5-5-----|-5-5-5-x-5-5-5-----5-5-5-x-5-5-5-----|
E|--------------------------------------|-------------------------------------|

[Verse]
("You beat us down, but we came back...")
G|---------------------------------------|------------------------------------|
D|---------------5-7----------------5-7--|-5-5-5-5--7-7-7-7--5-5-5-5--7-7-7-7-|
A|-5-5-5-x-5-5-5------5-5-5-x-5-5-5------|------------------------------------|
E|---------------------------------------|------------------------------------|

G|---------------------------------------|------------------------------------|
D|---------------5-7----------------5-7--|-5-5-5-5--7-7-7-7--5-5-5-5--7-7-7-7-|
A|-5-5-5-x-5-5-5------5-5-5-x-5-5-5------|------------------------------------|
E|---------------------------------------|------------------------------------|

[Chorus]
 ("The missing rung, We all knew,       We survived,      Catch 22")
G|------------------------------------|-------------------------------------|
D|------------------------------------|-------------------------------------|
A|-2-2-2-2-2-2--5-4--2-2-2-2-2-2--5-4-|-2-2-2-2-2-2--5-4--7-7-7-7-7-7-7-7-7-|
E|------------------------------------|-------------------------------------|

 ("Now we're prepared and that's the key, we'll survive, Catch 23")
G|------------------------------------|-------------------------------------|
D|------------------------------------|-------------------------------------|
A|-2-2-2-2-2-2--5-4--2-2-2-2-2-2--5-4-|-2-2-2-2-2-2--5-4--7-7-7-7-7-7-7-7-7-|
E|------------------------------------|-------------------------------------|

[Outro]
("Yeah, we'll survive. Catch 23...")
G|--------------------------------------|-------------------------------------|
D|---------------5-7----------------5-7-|---------------5-7---------------5-7-|
A|-5-5-5-x-5-5-5------5-5-5-x-5-5-5-----|-5-5-5-x-5-5-5-----5-5-5-x-5-5-5-----|
E|--------------------------------------|-------------------------------------|

G|--------------------------------------|-------------------------------------|
D|---------------5-7----------------5-7-|---------------5-7---------------5-7-|
A|-5-5-5-x-5-5-5------5-5-5-x-5-5-5-----|-5-5-5-x-5-5-5-----5-5-5-x-5-5-5-----|
E|--------------------------------------|-------------------------------------|

G|--------------------------------------|-------------------------------------|----------|
D|---------------5-7----------------5-7-|---------------5-7---------------5-7-|----------|
A|-5-5-5-x-5-5-5------5-5-5-x-5-5-5-----|-5-5-5-x-5-5-5-----5-5-5-x-5-5-5-----|-5--------|
E|--------------------------------------|-------------------------------------|----------|


***********************************

| x   Dead note

***********************************

Full lyrics scanned from the 7 inch picture sleeve:
http://ring.cdandlp.com/mjlam/photo_grande/114761203-2.jpg

            
            
Suggest correction
Creating personal tab
Creating personal tab
You can edit any tab online and save it as your Personal.

You can edit, replace or remove any tab part or add personal notes – all changes will be seen only by you.

Personal tabs can be accessed anytime from any device, even offline.
Learn more »
Give kudos to tab author, rate the tab!
1 2 3 4 5
comments
print report bad tab
guest
You may want to rate the tab now too:
select rating
Wanna post a correction for this tab? Suggest correction