Oops, an error
Loading. Please wait.

City Baby Attacked By Rats Bass Tab

by GBH
13 views 1 this week
no commentswrite comment
1 2 3 4 5
3 more votes to show rating
add to favorites
launch autoscroll
font size
0
reset
guitar tuner
Autoscroll
slow
fast
+/-
esc
set tempo
stop
Help us to improve Ultimate-Guitar.com Take our survey!
×
Author
Difficulty
novice
                             GBH - CITY BABY ATTACKED BY RATS

Tabbed by: Rottney (reconssuck)
E-mail: reconssuck@hotmail.de

Artist: GBH
Song: City Baby Attacked By Rats
Album: City Baby Attacked By Rats (1982)



[Intro] x8

G|--------|
D|--------|
A|-0-0-0--|
E|--------|


[Main Riff] x5

G|-----------------|------------------|
D|-----------------|-2-2-2-2-0-0-0-0--|
A|-0-0-0-2-3-3-3-3-|------------------|
E|-----------------|------------------|


[Chorus] x2

G|--------------|-------------|-------------|------------|
D|--------------|-------------|-------------|------------|
A|-3-3-0-0-0-0--|-3-3-0-0-0-0-|-3-3-0-0-0-0-|-5--5--5--5-|
E|--------------|-------------|-------------|------------|


[Main Riff] x5

G|-----------------|------------------|
D|-----------------|-2-2-2-2-0-0-0-0--|
A|-0-0-0-2-3-3-3-3-|------------------|
E|-----------------|------------------|


[Chorus] x2

G|--------------|-------------|-------------|------------|
D|--------------|-------------|-------------|------------|
A|-3-3-0-0-0-0--|-3-3-0-0-0-0-|-3-3-0-0-0-0-|-5--5--5--5-|
E|--------------|-------------|-------------|------------|


[Intro] x8

G|--------|
D|--------|
A|-0-0-0--|
E|--------|


[Main Riff] x3

G|-----------------|------------------|
D|-----------------|-2-2-2-2-0-0-0-0--|
A|-0-0-0-2-3-3-3-3-|------------------|
E|-----------------|------------------|


[Intro] x4

G|--------|
D|--------|
A|-0-0-0--|
E|--------|


[Main Riff] x5

G|-----------------|------------------|
D|-----------------|-2-2-2-2-0-0-0-0--|
A|-0-0-0-2-3-3-3-3-|------------------|
E|-----------------|------------------|


[Chorus] x2

G|--------------|-------------|-------------|------------|
D|--------------|-------------|-------------|------------|
A|-3-3-0-0-0-0--|-3-3-0-0-0-0-|-3-3-0-0-0-0-|-5--5--5--5-|
E|--------------|-------------|-------------|------------|


[Main Riff] x5

G|-----------------|------------------|
D|-----------------|-2-2-2-2-0-0-0-0--|
A|-0-0-0-2-3-3-3-3-|------------------|
E|-----------------|------------------|


[Chorus] x2

G|--------------|-------------|-------------|------------|
D|--------------|-------------|-------------|------------|
A|-3-3-0-0-0-0--|-3-3-0-0-0-0-|-3-3-0-0-0-0-|-5--5--5--5-|
E|--------------|-------------|-------------|------------|


[Intro] x13

G|--------|
D|--------|
A|-0-0-0--|
E|--------|

(song fades out)


That's all
Enjoy and Rate
Suggest correction
Give kudos to tab author, rate the tab!
1 2 3 4 5
comments
print report bad tab
guest
You may want to rate the tab now too:
select rating
Wanna post a correction for this tab? Suggest correction