Oops, an error
Loading. Please wait.

Crush Em Bass Tab

by GBH
4 views 1 this week
no commentswrite comment
1 2 3 4 5
3 more votes to show rating
add to favorites
launch autoscroll
font size
0
reset
guitar tuner
Autoscroll
slow
fast
+/-
esc
set tempo
stop
Help us to improve Ultimate-Guitar.com Take our survey!
×
Author
Difficulty
novice
                             GBH - CRUSH EM

Tabbed by: Rottney (reconssuck)
E-mail: reconssuck@hotmail.de

Artist: GBH
Song: Crush Em
Album: Ha Ha (2002)


[Intro] x3

G|------|-------|
D|------|-------|
A|------|--5----|
E|-3----|-------|

[Intro End]


G|--------|-----|------------------|
D|--------|-----|------------------|
A|-3------|-----|-5-5-5-5-5-5-5-5--|
E|--------|--0--|------------------|


[Verse] x4

G|-----------------------|---------------------|
D|-----------------------|---------------------|
A|-----------------------|-3-3-3-3-3-3-3-3-3-3-|
E|-3-3-3-3-3-3-3-3-3-3-3-|---------------------|

[Pre-Chorus] x3

G|-----------|-------------|-----------|-------------|
D|-----------|-------------|-----------|-------------|
A|-5-5-5-5-5-|-7-7-7-7-7-7-|-3-3-3-3-3-|-------------|
E|-----------|-------------|-----------|-3-3-3-3-3-3-|


[Chorus]

G|---------|---------|---------|---------|---------------|
D|---------|---------|---------|---------|---------------|
A|-3-3-3-3-|-2-2-2-2-|-0-0-0-0-|---------|-5-5-5-5-5-5-5-|
E|---------|---------|---------|-3-3-3-3-|---------------|


[Verse] x4

G|-----------------------|---------------------|
D|-----------------------|---------------------|
A|-----------------------|-3-3-3-3-3-3-3-3-3-3-|
E|-3-3-3-3-3-3-3-3-3-3-3-|---------------------|

[Pre-Chorus] x3

G|-----------|-------------|-----------|-------------|
D|-----------|-------------|-----------|-------------|
A|-5-5-5-5-5-|-7-7-7-7-7-7-|-3-3-3-3-3-|-------------|
E|-----------|-------------|-----------|-3-3-3-3-3-3-|


[Chorus]

G|---------|---------|---------|---------|---------------|
D|---------|---------|---------|---------|---------------|
A|-3-3-3-3-|-2-2-2-2-|-0-0-0-0-|---------|-5-5-5-5-5-5-5-|
E|---------|---------|---------|-3-3-3-3-|---------------|


[Verse] x4

G|-----------------------|---------------------|
D|-----------------------|---------------------|
A|-----------------------|-3-3-3-3-3-3-3-3-3-3-|
E|-3-3-3-3-3-3-3-3-3-3-3-|---------------------|

[Pre-Chorus] x3

G|-----------|-------------|-----------|-------------|
D|-----------|-------------|-----------|-------------|
A|-5-5-5-5-5-|-7-7-7-7-7-7-|-3-3-3-3-3-|-------------|
E|-----------|-------------|-----------|-3-3-3-3-3-3-|


[Chorus]

G|---------|---------|---------|---------|---------------|
D|---------|---------|---------|---------|---------------|
A|-3-3-3-3-|-2-2-2-2-|-0-0-0-0-|---------|-5-5-5-5-5-5-5-|
E|---------|---------|---------|-3-3-3-3-|---------------|

[Verse] x4

G|-----------------------|---------------------|
D|-----------------------|---------------------|
A|-----------------------|-3-3-3-3-3-3-3-3-3-3-|
E|-3-3-3-3-3-3-3-3-3-3-3-|---------------------|


[Pre-Chorus] x3

G|-----------|-------------|-----------|-------------|
D|-----------|-------------|-----------|-------------|
A|-5-5-5-5-5-|-7-7-7-7-7-7-|-3-3-3-3-3-|-------------|
E|-----------|-------------|-----------|-3-3-3-3-3-3-|

[Chorus]

G|---------|---------|---------|---------|---------------|
D|---------|---------|---------|---------|---------------|
A|-3-3-3-3-|-2-2-2-2-|-0-0-0-0-|---------|-5-5-5-5-5-5-5-|
E|---------|---------|---------|-3-3-3-3-|---------------|

[Verse] x4

G|-----------------------|---------------------|
D|-----------------------|---------------------|
A|-----------------------|-3-3-3-3-3-3-3-3-3-3-|
E|-3-3-3-3-3-3-3-3-3-3-3-|---------------------|

[Outro] 

G|------|-------|
D|------|-------|
A|------|--5----|
E|-3----|-------|



That's all
Enjoy and Rate
Suggest correction
Give kudos to tab author, rate the tab!
1 2 3 4 5
comments
print report bad tab
guest
You may want to rate the tab now too:
select rating
Wanna post a correction for this tab? Suggest correction