Oops, an error
Loading. Please wait.

Dead On Arrival Bass Tab

by GBH
1 view 1 this week
no commentswrite comment
1 2 3 4 5
3 more votes to show rating
add to favorites
launch autoscroll
font size
0
reset
guitar tuner
Autoscroll
slow
fast
+/-
esc
set tempo
stop
Help us to improve Ultimate-Guitar.com Take our survey!
×
Author
Difficulty
Tuning
novice
D# G# C# F# A# D#
                             GBH - DEAD ON ARRIVAL

Tabbed by: Rottney (reconssuck)
E-mail: reconssuck@hotmail.de

Artist: GBH
Song: Dead On Arrival
Album: Leather Bristles Studs and Acne (1981)




[Main Riff] x4

F#|---------------|----------|
C#|---------------|----------|
G#|-5-5-5-5-5-5-5-|-10-8-8-8-|
D#|---------------|----------|

[Interlude]

F#|-----------------|---------------|
C#|-----------------|---------------|
G#|-7-7-7-7-7-7-7-7-|-7-7-7-7-7-7-7-|
D#|-----------------|---------------|

[Main Riff] x8

F#|---------------|----------|
C#|---------------|----------|
G#|-5-5-5-5-5-5-5-|-10-8-8-8-|
D#|---------------|----------|

[Interlude]

F#|-----------------|---------------|
C#|-----------------|---------------|
G#|-7-7-7-7-7-7-7-7-|-7-7-7-7-7-7-7-|
D#|-----------------|---------------|

[Main Riff] x16

F#|---------------|----------|
C#|---------------|----------|
G#|-5-5-5-5-5-5-5-|-10-8-8-8-|
D#|---------------|----------|


[Interlude]

F#|-----------------|---------------|
C#|-----------------|---------------|
G#|-7-7-7-7-7-7-7-7-|-7-7-7-7-7-7-7-|
D#|-----------------|---------------|

[Main Riff] x8

F#|---------------|----------|
C#|---------------|----------|
G#|-5-5-5-5-5-5-5-|-10-8-8-8-|
D#|---------------|----------|

[Interlude]

F#|-----------------|---------------|
C#|-----------------|---------------|
G#|-7-7-7-7-7-7-7-7-|-7-7-7-7-7-7-7-|
D#|-----------------|---------------|


[Main Riff] x4

F#|---------------|----------|
C#|---------------|----------|
G#|-5-5-5-5-5-5-5-|-10-8-8-8-|
D#|---------------|----------|



That's all
Enjoy and Rate




Suggest correction
Give kudos to tab author, rate the tab!
1 2 3 4 5
comments
print report bad tab
guest
You may want to rate the tab now too:
select rating
Wanna post a correction for this tab? Suggest correction