Oops, an error
Loading. Please wait.

Diplomatic Immunity Bass Tab

by GBH
7 views 1 this week
no commentswrite comment
1 2 3 4 5
3 more votes to show rating
add to favorites
launch autoscroll
font size
0
reset
guitar tuner
Autoscroll
slow
fast
+/-
esc
set tempo
stop
Help us to improve Ultimate-Guitar.com Take our survey!
×
Author
Difficulty
novice
                             GBH - DIPLOMATIC IMMUNITY

Tabbed by: Rottney (reconssuck)
E-mail: reconssuck@hotmail.de

Artist: GBH
Song: Diplomatic Immunity
Album: City Baby Attacked By Rats (1982)




[Intro] x3

G|-------|
D|-------|
A|-5--5--|
E|-------|

[Verse] x5

G|------------------|-----------------|
D|--------3-5-3-----|-------3-5-3-----|
A|-5-5-5--------3-3-|-5-5-5-------5-3-|
E|------------------|-----------------|


[Chorus]

G|-----------------|-------------------|-------------------|--------------------|
D|-----------------|-------------------|-------------------|--------------------|
A|-----------------|-------------------|-------------------|--------------------|
E|-5-5-3-5-5-5-5-5-|-3-3-1-3-3-3-3-3-3-|-5-5-5-3-5-5-5-5-5-|-1-1-1-1-1-1--------|

G|-------------|-------------|-------------|
D|-------------|-------------|-------------|
A|-5-7-7-7-7-7-|-5-7-7-7-7-7-|-5-7-5-7-5-7-|
E|-------------|-------------|-------------|

[Verse] x5

G|------------------|-----------------|
D|--------3-5-3-----|-------3-5-3-----|
A|-5-5-5--------3-3-|-5-5-5-------5-3-|
E|------------------|-----------------|


[Chorus]

G|-----------------|-------------------|-------------------|--------------------|
D|-----------------|-------------------|-------------------|--------------------|
A|-----------------|-------------------|-------------------|--------------------|
E|-5-5-3-5-5-5-5-5-|-3-3-1-3-3-3-3-3-3-|-5-5-5-3-5-5-5-5-5-|-1-1-1-1-1-1--------|

G|-------------|-------------|-------------|
D|-------------|-------------|-------------|
A|-5-7-7-7-7-7-|-5-7-7-7-7-7-|-5-7-5-7-5-7-|
E|-------------|-------------|-------------|

[Verse] x5

G|------------------|-----------------|
D|--------3-5-3-----|-------3-5-3-----|
A|-5-5-5--------3-3-|-5-5-5-------5-3-|
E|------------------|-----------------|

[Chorus]

G|-----------------|-------------------|-------------------|--------------------|
D|-----------------|-------------------|-------------------|--------------------|
A|-----------------|-------------------|-------------------|--------------------|
E|-5-5-3-5-5-5-5-5-|-3-3-1-3-3-3-3-3-3-|-5-5-5-3-5-5-5-5-5-|-1-1-1-1-1-1--------|

G|-------------|-------------|-------------|
D|-------------|-------------|-------------|
A|-5-7-7-7-7-7-|-5-7-7-7-7-7-|-5-7-5-7-5-7-|
E|-------------|-------------|-------------|

[Verse] x7

G|------------------|-----------------|
D|--------3-5-3-----|-------3-5-3-----|
A|-5-5-5--------3-3-|-5-5-5-------5-3-|
E|------------------|-----------------|

[Chorus]

G|-----------------|-------------------|-------------------|--------------------|
D|-----------------|-------------------|-------------------|--------------------|
A|-----------------|-------------------|-------------------|--------------------|
E|-5-5-3-5-5-5-5-5-|-3-3-1-3-3-3-3-3-3-|-5-5-5-3-5-5-5-5-5-|-1-1-1-1-1-1--------|

G|-------------|-------------|-------------|
D|-------------|-------------|-------------|
A|-5-7-7-7-7-7-|-5-7-7-7-7-7-|-5-7-5-7-5-7-|
E|-------------|-------------|-------------|

[Intro] x4

G|-------|
D|-------|
A|-5--5--|
E|-------|



That's all
Enjoy and Rate
Suggest correction
Give kudos to tab author, rate the tab!
1 2 3 4 5
comments
print report bad tab
guest
You may want to rate the tab now too:
select rating
Wanna post a correction for this tab? Suggest correction