Oops, an error
Loading. Please wait.

Drugs Party In 526 Bass Tab

by GBH
4 views 1 this week
no commentswrite comment
1 2 3 4 5
3 more votes to show rating
add to favorites
launch autoscroll
font size
0
reset
guitar tuner
Autoscroll
slow
fast
+/-
esc
set tempo
stop
Help us to improve Ultimate-Guitar.com Take our survey!
×
Author
Difficulty
novice
                             GBH - DRUGS PARTY IN 526

Tabbed by: Rottney (reconssuck)
E-mail: reconssuck@hotmail.de

Artist: GBH
Song: Drugs Party in 526
Album: City Babys Revenge (1984)


[Main Riff] x8

G|-----------------|---------------|
D|---0-5-7-5-------|---------------|
A|-7---------7-5-0-|-5-5-5-8-8-8-8-|
E|-----------------|---------------|


[Chorus] x2

G|-------------|-------------|
D|-------------|-------------|
A|-3-2-0-0-0-0-|-3-2-0-7-7-7-|
E|-------------|-------------|


[Main Riff] x8

G|-----------------|---------------|
D|---0-5-7-5-------|---------------|
A|-7---------7-5-0-|-5-5-5-8-8-8-8-|
E|-----------------|---------------|


[Chorus] x2

G|-------------|-------------|
D|-------------|-------------|
A|-3-2-0-0-0-0-|-3-2-0-7-7-7-|
E|-------------|-------------|


[Solo Backing] x8

G|------------------|
D|------------------|
A|------------------|
E|-0-0-0-0-0-0-0-0--|


[Main Riff] x8

G|-----------------|---------------|
D|---0-5-7-5-------|---------------|
A|-7---------7-5-0-|-5-5-5-8-8-8-8-|
E|-----------------|---------------|


[Chorus] x2

G|-------------|-------------|
D|-------------|-------------|
A|-3-2-0-0-0-0-|-3-2-0-7-7-7-|
E|-------------|-------------|


[Solo Backing] x8

G|------------------|
D|------------------|
A|------------------|
E|-0-0-0-0-0-0-0-0--|


[Main Riff] x4

G|-----------------|---------------|
D|---0-5-7-5-------|---------------|
A|-7---------7-5-0-|-5-5-5-8-8-8-8-|
E|-----------------|---------------|


[Chorus] x2

G|-------------|-------------|
D|-------------|-------------|
A|-3-2-0-0-0-0-|-3-2-0-7-7-7-|
E|-------------|-------------|


[Outro] x8

G|------------------|
D|------------------|
A|------------------|
E|-0-0-0-0-0-0-0-0--|



That's all
Enjoy and Rate
Suggest correction
Give kudos to tab author, rate the tab!
1 2 3 4 5
comments
print report bad tab
guest
You may want to rate the tab now too:
select rating
Wanna post a correction for this tab? Suggest correction