Oops, an error
Loading. Please wait.

Faster Faster Bass Tab

by GBH
4 views 1 this week
no commentswrite comment
1 2 3 4 5
2 more votes to show rating
add to favorites
launch autoscroll
font size
0
reset
guitar tuner
Autoscroll
slow
fast
+/-
esc
set tempo
stop
Help us to improve Ultimate-Guitar.com Take our survey!
×
Author
Difficulty
novice
                             GBH - FASTER FASTER

Tabbed by: Rottney (reconssuck)
E-mail: reconssuck@hotmail.de

Artist: GBH
Song: Faster Faster
Album: City Baby's Revenge (1984)



[Intro] x8

G|-----------------|-----------------|
D|-----------------|-----------------|
A|-5-5-5-5-5-5-5-5-|-5-5-5-5-5-5-5-5-|
E|-----------------|-----------------|


[Verse] x4

G|---------|---------|--------------|
D|---------|---------|--------------|
A|---------|---------|-------8-7----|
E|-5-5-5-5-|-8-8-8-8-|-5-5-5-----8--|

[Intro] x8

G|-----------------|-----------------|
D|-----------------|-----------------|
A|-5-5-5-5-5-5-5-5-|-5-5-5-5-5-5-5-5-|
E|-----------------|-----------------|

[Fill]

G|-------------|-------------|-------------|-------------|
D|-------------|-------------|-------------|-------------|
A|-5-5-7-7-7-7-|-5-5-7-7-7-7-|-5-5-7-7-7-7-|-5-5-7-7-7-7-|
E|-------------|-------------|-------------|-------------|


[Verse] x6

G|---------|---------|--------------|
D|---------|---------|--------------|
A|---------|---------|-------8-7----|
E|-5-5-5-5-|-8-8-8-8-|-5-5-5-----8--|

[Intro] x8

G|-----------------|-----------------|
D|-----------------|-----------------|
A|-5-5-5-5-5-5-5-5-|-5-5-5-5-5-5-5-5-|
E|-----------------|-----------------|

[Fill]

G|-------------|-------------|-------------|-------------|
D|-------------|-------------|-------------|-------------|
A|-5-5-7-7-7-7-|-5-5-7-7-7-7-|-5-5-7-7-7-7-|-5-5-7-7-7-7-|
E|-------------|-------------|-------------|-------------|

[Intro] x8

G|-----------------|-----------------|
D|-----------------|-----------------|
A|-5-5-5-5-5-5-5-5-|-5-5-5-5-5-5-5-5-|
E|-----------------|-----------------|

[Verse] x6

G|---------|---------|--------------|
D|---------|---------|--------------|
A|---------|---------|-------8-7----|
E|-5-5-5-5-|-8-8-8-8-|-5-5-5-----8--|

[Intro] x8

G|-----------------|-----------------|
D|-----------------|-----------------|
A|-5-5-5-5-5-5-5-5-|-5-5-5-5-5-5-5-5-|
E|-----------------|-----------------|

[Fill]

G|-------------|-------------|-------------|-------------|
D|-------------|-------------|-------------|-------------|
A|-5-5-7-7-7-7-|-5-5-7-7-7-7-|-5-5-7-7-7-7-|-5-5-7-7-7-7-|
E|-------------|-------------|-------------|-------------|


[Verse] x8

G|---------|---------|--------------|
D|---------|---------|--------------|
A|---------|---------|-------8-7----|
E|-5-5-5-5-|-8-8-8-8-|-5-5-5-----8--|

[Intro] x8

G|-----------------|-----------------|
D|-----------------|-----------------|
A|-5-5-5-5-5-5-5-5-|-5-5-5-5-5-5-5-5-|
E|-----------------|-----------------|


[Fill]

G|-------------|-------------|-------------|-------------|
D|-------------|-------------|-------------|-------------|
A|-5-5-7-7-7-7-|-5-5-7-7-7-7-|-5-5-7-7-7-7-|-5-5-7-7-7-7-|
E|-------------|-------------|-------------|-------------|

[End]

G|----------|
D|----------|
A|----------|
E|--5-------|




That's all
Enjoy and Rate
Suggest correction
Give kudos to tab author, rate the tab!
1 2 3 4 5
comments
print report bad tab
guest
You may want to rate the tab now too:
select rating
Wanna post a correction for this tab? Suggest correction