Oops, an error
Loading. Please wait.

Generals Bass Tab

version 1
version 1

Whole song

Interactive

by GBH
13 views 1 this week
no commentswrite comment
1 2 3 4 5
3 more votes to show rating
add to favorites
launch autoscroll
font size
0
reset
guitar tuner
Autoscroll
slow
fast
+/-
esc
set tempo
stop
Help us to improve Ultimate-Guitar.com Take our survey!
×
Author
Difficulty
novice
                             GBH - GENERALS

Tabbed by: Rottney (reconssuck)
E-mail: reconssuck@hotmail.de

Artist: GBH
Song: Generals
Album: Leather Bristles Studs and Acne (1981)



[Main Riff] x6

G|-----------------|---------|---------|
D|-----------------|---------|---------|
A|-----------------|-3-3-3-3-|---------|
E|-5-5-5-5-5-5-5-5-|---------|-3-3-3-3-|

[Main Riff with fill] x8

G|-----------------|---------|---------------|
D|-----------------|---------|---------------|
A|-----------------|-3-3-3-3-|---------------|
E|-5-5-3-5-5-5-5-5-|---------|-3-3-3-3-3-3-3-|


[Chrous]

G|-----------------|------------|
D|-----------------|------------|
A|-----------------|------------|
E|-0-0-0-0-0-0-0-0-|--1---2---3-|


[Main Riff with fill] x4

G|-----------------|---------|---------------|
D|-----------------|---------|---------------|
A|-----------------|-3-3-3-3-|---------------|
E|-5-5-3-5-5-5-5-5-|---------|-3-3-3-3-3-3-3-|



[Chrous]

G|-----------------|------------|
D|-----------------|------------|
A|-----------------|------------|
E|-0-0-0-0-0-0-0-0-|--1---2---3-|



[Main Riff with fill] x14

G|-----------------|---------|---------------|
D|-----------------|---------|---------------|
A|-----------------|-3-3-3-3-|---------------|
E|-5-5-3-5-5-5-5-5-|---------|-3-3-3-3-3-3-3-|

[Main Riff] x4

G|-----------------|---------|---------|
D|-----------------|---------|---------|
A|-----------------|-3-3-3-3-|---------|
E|-5-5-5-5-5-5-5-5-|---------|-3-3-3-3-|


[Chrous] 

G|-----------------|------------|
D|-----------------|------------|
A|-----------------|------------|
E|-0-0-0-0-0-0-0-0-|--1---2---3-|


[Bridge] x4

G|--------|-------|-------|
D|--------|-------|-------|
A|--------|-3-3-3-|-------|
E|-5-5-5--|-------|-5-5-5-|


[Main Riff with fill] x6

G|-----------------|---------|---------------|
D|-----------------|---------|---------------|
A|-----------------|-3-3-3-3-|---------------|
E|-5-5-3-5-5-5-5-5-|---------|-3-3-3-3-3-3-3-|

[Chrous] 

G|-----------------|------------|
D|-----------------|------------|
A|-----------------|------------|
E|-0-0-0-0-0-0-0-0-|--1---2---3-|



[Main Riff with fill] x8

G|-----------------|---------|---------------|
D|-----------------|---------|---------------|
A|-----------------|-3-3-3-3-|---------------|
E|-5-5-3-5-5-5-5-5-|---------|-3-3-3-3-3-3-3-|




That's all
Enjoy and Rate



Suggest correction
Give kudos to tab author, rate the tab!
1 2 3 4 5
comments
print report bad tab
guest
You may want to rate the tab now too:
select rating
Wanna post a correction for this tab? Suggest correction