Oops, an error
Loading. Please wait.

Gunned Down Bass Tab

by GBH
16 views 1 this week
no commentswrite comment
1 2 3 4 5
3 more votes to show rating
add to favorites
launch autoscroll
font size
0
reset
guitar tuner
Autoscroll
slow
fast
+/-
esc
set tempo
stop
Help us to improve Ultimate-Guitar.com Take our survey!
×
Author
Difficulty
novice
                             GBH - GUNNED DOWN

Tabbed by: Rottney (reconssuck)
E-mail: reconssuck@hotmail.de

Artist: GBH
Song: Gunned Down
Album: City Baby Attacked By Rats (1982)





[Intro]

G|--------|-------------------|--------------|
D|--------|-------------------|--------------|
A|-4------|-16--4-4-4-4-4-4-4-|-7-7-7-9-7-9--|
E|--------|-------------------|--------------|

[Main Riff] x8

G|-----------------|---------------|
D|-----------------|---------------|
A|-4-4-4-4-4-4-4-4-|-7-7-7-7-9-7-9-|
E|-----------------|---------------|


[Chorus] x3

G|---------------|-------|-------------|----------|
D|---------------|-------|-------------|----------|
A|---------------|-6-7-6-|-4-4-4-4-4-4-|-4-6-4----|
E|-7-7-7-7-7-7-7-|-------|-------------|--------7-|


[Main Riff] x8

G|-----------------|---------------|
D|-----------------|---------------|
A|-4-4-4-4-4-4-4-4-|-7-7-7-7-9-7-9-|
E|-----------------|---------------|

[Chorus] x3

G|---------------|-------|-------------|----------|
D|---------------|-------|-------------|----------|
A|---------------|-6-7-6-|-4-4-4-4-4-4-|-4-6-4----|
E|-7-7-7-7-7-7-7-|-------|-------------|--------7-|

[Main Riff] x8

G|-----------------|---------------|
D|-----------------|---------------|
A|-4-4-4-4-4-4-4-4-|-7-7-7-7-9-7-9-|
E|-----------------|---------------|

[Chorus] x3

G|---------------|-------|-------------|----------|
D|---------------|-------|-------------|----------|
A|---------------|-6-7-6-|-4-4-4-4-4-4-|-4-6-4----|
E|-7-7-7-7-7-7-7-|-------|-------------|--------7-|

[Main Riff] x8

G|-----------------|---------------|
D|-----------------|---------------|
A|-4-4-4-4-4-4-4-4-|-7-7-7-7-9-7-9-|
E|-----------------|---------------|

[Chorus] x2

G|---------------|-------|-------------|----------|
D|---------------|-------|-------------|----------|
A|---------------|-6-7-6-|-4-4-4-4-4-4-|-4-6-4----|
E|-7-7-7-7-7-7-7-|-------|-------------|--------7-|

[Main Riff] x3

G|-----------------|---------------|
D|-----------------|---------------|
A|-4-4-4-4-4-4-4-4-|-7-7-7-7-9-7-9-|
E|-----------------|---------------|




That's all
Enjoy and Rate
Suggest correction
Give kudos to tab author, rate the tab!
1 2 3 4 5
comments
print report bad tab
guest
You may want to rate the tab now too:
select rating
Wanna post a correction for this tab? Suggest correction