Oops, an error
Loading. Please wait.

Heavy Discipline Bass

10 views 1 this week
no commentswrite comment
1 2 3 4 5
3 more votes to show rating
add to favorites
launch autoscroll
font size
0
reset
guitar tuner
×
Best way to learn
"Heavy Discipline"
Autoscroll
slow
fast
+/-
esc
set tempo
stop
Author
Difficulty
                             GBH - HEAVY DISCIPLINE

Tabbed by: Rottney (reconssuck)
E-mail: reconssuck@hotmail.de

Artist: GBH
Song: Heavy Discipline
Album: City Baby Attacked By Rats (1982)




[Intro]

G|-----------|
D|-----------|
A|-15/-------|
E|-----------|

[Intro Riff 2] x4

G|---------------------------|--------|
D|---------------------------|--------|
A|---------------------------|--------|
E|-5-5-5-5-5-5-5-5-5-5-5-5-5-|-0-0-3--|

[Verse] x8

G|------------------|
D|------------------|
A|-9-9-----7-7------|
E|-----9-9-----7-7--|


[Chorus] x3

G|---------------|-------------|---------------|-------------|
D|---------------|-------------|---------------|-------------|
A|-0-0-0-0-0-0-0-|-5-5-5-5-5-5-|-0-0-0-0-0-0-0-|-5-5-5-2-2-2-|
E|---------------|-------------|---------------|-------------|

[Verse] x8

G|------------------|
D|------------------|
A|-9-9-----7-7------|
E|-----9-9-----7-7--|


[Chorus] x3

G|---------------|-------------|---------------|-------------|
D|---------------|-------------|---------------|-------------|
A|-0-0-0-0-0-0-0-|-5-5-5-5-5-5-|-0-0-0-0-0-0-0-|-5-5-5-2-2-2-|
E|---------------|-------------|---------------|-------------|

[Verse] x4

G|------------------|
D|------------------|
A|-9-9-----7-7------|
E|-----9-9-----7-7--|

[Chorus] x3

G|---------------|-------------|---------------|-------------|
D|---------------|-------------|---------------|-------------|
A|-0-0-0-0-0-0-0-|-5-5-5-5-5-5-|-0-0-0-0-0-0-0-|-5-5-5-2-2-2-|
E|---------------|-------------|---------------|-------------|

[Verse] x8

G|------------------|
D|------------------|
A|-9-9-----7-7------|
E|-----9-9-----7-7--|

[Chorus] x3

G|---------------|-------------|---------------|-------------|
D|---------------|-------------|---------------|-------------|
A|-0-0-0-0-0-0-0-|-5-5-5-5-5-5-|-0-0-0-0-0-0-0-|-5-5-5-2-2-2-|
E|---------------|-------------|---------------|-------------|

[End]

G|--------|--------|
D|--------|--------|
A|-9------|-9------|
E|--------|--------|




*********************************** 
| / Slide up
***********************************




That's all
Enjoy and Rate
Suggest correction
Give kudos to tab author, rate the tab!
1 2 3 4 5
comments
print report bad tab
guest
You may want to rate the tab now too:
select rating
Wanna post a correction for this tab? Suggest correction