Oops, an error
Loading. Please wait.

Hell Hole Bass Tab

by GBH
10 views 1 this week
no commentswrite comment
1 2 3 4 5
3 more votes to show rating
add to favorites
launch autoscroll
font size
0
reset
guitar tuner
Autoscroll
slow
fast
+/-
esc
set tempo
stop
Help us to improve Ultimate-Guitar.com Take our survey!
×
Author
Difficulty
novice
                             GBH - HELLHOLE

Tabbed by: Rottney (reconssuck)
E-mail: reconssuck@hotmail.de

Artist: GBH
Song: Hell Hole
Album: No Survivors (1989)


[Intro] x10

G|-----------------|-----------------|
D|-----------------|-----------------|
A|-----------------|-----------------|
E|-0-0-0-0-0-0-0-0-|-0-0-0-0-0-0-0-0-|


[Main Riff] x4

G|-------------|----------------------|--------------|
D|-------------|----------------------|--------------|
A|-7-7-7-5-7-7-|-10-10-10-10-10-10-10-|-9-9-9-10-9-9-|
E|-------------|----------------------|--------------|


[Verse] x4

G|-------------|-----------------|
D|-------------|-----------------|
A|-3-3-5-5-5-5-|-5-5-5-5-5-5-5-5-|
E|-------------|-----------------|


[Main Riff] x4

G|-------------|----------------------|--------------|
D|-------------|----------------------|--------------|
A|-7-7-7-5-7-7-|-10-10-10-10-10-10-10-|-9-9-9-10-9-9-|
E|-------------|----------------------|--------------|


[Verse] x4

G|-------------|-----------------|
D|-------------|-----------------|
A|-3-3-5-5-5-5-|-5-5-5-5-5-5-5-5-|
E|-------------|-----------------|


[Intro] x10

G|-----------------|-----------------|
D|-----------------|-----------------|
A|-----------------|-----------------|
E|-0-0-0-0-0-0-0-0-|-0-0-0-0-0-0-0-0-|


[Main Riff] x4

G|-------------|----------------------|--------------|
D|-------------|----------------------|--------------|
A|-7-7-7-5-7-7-|-10-10-10-10-10-10-10-|-9-9-9-10-9-9-|
E|-------------|----------------------|--------------|


[Verse] x4

G|-------------|-----------------|
D|-------------|-----------------|
A|-3-3-5-5-5-5-|-5-5-5-5-5-5-5-5-|
E|-------------|-----------------|


[Intro] x16

G|-----------------|-----------------|
D|-----------------|-----------------|
A|-----------------|-----------------|
E|-0-0-0-0-0-0-0-0-|-0-0-0-0-0-0-0-0-|


[Main Riff] x4

G|-------------|----------------------|--------------|
D|-------------|----------------------|--------------|
A|-7-7-7-5-7-7-|-10-10-10-10-10-10-10-|-9-9-9-10-9-9-|
E|-------------|----------------------|--------------|


[Verse] x4

G|-------------|-----------------|
D|-------------|-----------------|
A|-3-3-5-5-5-5-|-5-5-5-5-5-5-5-5-|
E|-------------|-----------------|


[Main Riff] x4

G|-------------|----------------------|--------------|
D|-------------|----------------------|--------------|
A|-7-7-7-5-7-7-|-10-10-10-10-10-10-10-|-9-9-9-10-9-9-|
E|-------------|----------------------|--------------|




That's all
Enjoy and Rate
Suggest correction
Give kudos to tab author, rate the tab!
1 2 3 4 5
comments
print report bad tab
guest
You may want to rate the tab now too:
select rating
Wanna post a correction for this tab? Suggest correction