Oops, an error
Loading. Please wait.

Hell Hole Tab

by GBH
367 views 1 this week
no commentswrite comment
1 2 3 4 5
please rate
add to favorites
launch autoscroll
font size
0
reset
how to read this tab
guitar tuner
Autoscroll
slow
fast
+/-
esc
set tempo
stop
Help us to improve Ultimate-Guitar.com Take our survey!
×
E|------------------|
B|------------------|
G|------------------|
D|----3--5--3-------|X5
A|--7---------5--7--|
E|------------------|

E|------------------|
B|------------------|
G|------------------|
D|--3--5--3--7------|X1
A|------------------|
E|------------------|

VERSE:
E|-----------------------------------------|
B|-----------------------------------------|
D|-----------------------------------------|
G|-----999-----121212--11---12---11---999--|X4
A|--777---101010-----9----10---9---7777----|
E|-----------------------------------------|

PART2
E|------------------------------------------|
B|------------------------------------------|
D|------------------------------------------|
G|---5--7r----------------------------------|x4
A|--3--5r-----------------------------------|
E|------------------------------------------|

Repeat verse and part2

Let it ring=r
Suggest correction
Give kudos to tab author, rate the tab!
1 2 3 4 5
comments
print report bad tab
guest
You may want to rate the tab now too:
select rating
Wanna post a correction for this tab? Suggest correction