Oops, an error
Loading. Please wait.

Junkies Bass Tab

by GBH
4 views 1 this week
no commentswrite comment
1 2 3 4 5
3 more votes to show rating
add to favorites
launch autoscroll
font size
0
reset
guitar tuner
Autoscroll
slow
fast
+/-
esc
set tempo
stop
Help us to improve Ultimate-Guitar.com Take our survey!
×
Author
Difficulty
novice
                             GBH - JUNKIES

Tabbed by: Rottney (reconssuck)
E-mail: reconssuck@hotmail.de

Artist: GBH
Song: Junkies
Album: Punk Junkies (1996)


[Intro] x8

G|---------------|---------------|
D|---------------|---------------|
A|---------------|-8-8-8-8-8-8-8-|
E|-7-7-7-7-7-7-7-|---------------|


[Chorus] 

G|---------------|--------------|-----------------------------|
D|---------------|--------------|-----------------------------|
A|---------------|-5-5-5--------|-----------------------------|
E|-3-3-3-3-3-3-3-|--------5-5-5-|-7-7-7-7-7-7-7-7-7-7-7-7-7-7-|


[Chorus End]

G|---------------|--------------|
D|---------------|--------------|
A|---------------|-5-5-5--------|
E|-3-3-3-3-3-3-3-|--------5-5-5-|


[Intro] x8

G|---------------|---------------|
D|---------------|---------------|
A|---------------|-8-8-8-8-8-8-8-|
E|-7-7-7-7-7-7-7-|---------------|


[Chorus] 

G|---------------|--------------|-----------------------------|
D|---------------|--------------|-----------------------------|
A|---------------|-5-5-5--------|-----------------------------|
E|-3-3-3-3-3-3-3-|--------5-5-5-|-7-7-7-7-7-7-7-7-7-7-7-7-7-7-|


[Chorus End]

G|---------------|--------------|
D|---------------|--------------|
A|---------------|-5-5-5--------|
E|-3-3-3-3-3-3-3-|--------5-5-5-|


[Intro] x8

G|---------------|---------------|
D|---------------|---------------|
A|---------------|-8-8-8-8-8-8-8-|
E|-7-7-7-7-7-7-7-|---------------|


[Chorus] 

G|---------------|--------------|-----------------------------|
D|---------------|--------------|-----------------------------|
A|---------------|-5-5-5--------|-----------------------------|
E|-3-3-3-3-3-3-3-|--------5-5-5-|-7-7-7-7-7-7-7-7-7-7-7-7-7-7-|


[Chorus End]

G|---------------|--------------|
D|---------------|--------------|
A|---------------|-5-5-5--------|
E|-3-3-3-3-3-3-3-|--------5-5-5-|


[Intro] x4

G|---------------|---------------|
D|---------------|---------------|
A|---------------|-8-8-8-8-8-8-8-|
E|-7-7-7-7-7-7-7-|---------------|


[Bridge] x4

G|---------|------------------|
D|---------|------------------|
A|---7-6---|-8---8------------|
E|-7-----7-|---7---7----------|


[Chorus] x3

G|---------------|--------------|-----------------------------|
D|---------------|--------------|-----------------------------|
A|---------------|-5-5-5--------|-----------------------------|
E|-3-3-3-3-3-3-3-|--------5-5-5-|-7-7-7-7-7-7-7-7-7-7-7-7-7-7-|


[Chorus End]

G|---------------|--------------|
D|---------------|--------------|
A|---------------|-5-5-5--------|
E|-3-3-3-3-3-3-3-|--------5-5-5-|


[Intro] x8

G|---------------|---------------|
D|---------------|---------------|
A|---------------|-8-8-8-8-8-8-8-|
E|-7-7-7-7-7-7-7-|---------------|


[Chorus] x3

G|---------------|--------------|-----------------------------|
D|---------------|--------------|-----------------------------|
A|---------------|-5-5-5--------|-----------------------------|
E|-3-3-3-3-3-3-3-|--------5-5-5-|-7-7-7-7-7-7-7-7-7-7-7-7-7-7-|


[Chorus End]

G|---------------|--------------|
D|---------------|--------------|
A|---------------|-5-5-5--------|
E|-3-3-3-3-3-3-3-|--------5-5-5-|


[Intro] x4

G|---------------|---------------|
D|---------------|---------------|
A|---------------|-8-8-8-8-8-8-8-|
E|-7-7-7-7-7-7-7-|---------------|


[Outro]

G|--------------|-----------|------------|--------|
D|--------------|-----------|------------|--------|
A|--------7---7-|-6--6------|-8-8--------|--------|
E|-7---7--------|------7--7-|------7--7--|-7------|



That's all
Enjoy and Rate
Suggest correction
Give kudos to tab author, rate the tab!
1 2 3 4 5
comments
print report bad tab
guest
You may want to rate the tab now too:
select rating
Wanna post a correction for this tab? Suggest correction