Oops, an error
Loading. Please wait.

Kids Get Down Bass Tab

by GBH
4 views 1 this week
no commentswrite comment
1 2 3 4 5
3 more votes to show rating
add to favorites
launch autoscroll
font size
0
reset
guitar tuner
Autoscroll
slow
fast
+/-
esc
set tempo
stop
Help us to improve Ultimate-Guitar.com Take our survey!
×
Author
Difficulty
novice
                             GBH - KIDS GET DOWN

Tabbed by: Rottney (reconssuck)
E-mail: reconssuck@hotmail.de

Artist: GBH
Song: Kids Get Down
Album: Perfume And Piss (2010)


[Verse]

G|--------------------------|-----------------------|---------------------------|-----------------------|
D|--------------------------|-----------------------|---------------------------|-----------------------|
A|------7-7-7-7-7-7-7-7-7-7-|-----7-7-7-7-7-7-7-7-7-|-----7-7-7-7-7-7-7-7-7-7-7-|-8-8-7-7-7-7-7-7-7-7-7-|
E|-5-5----------------------|-5-5-------------------|-5-5-----------------------|-----------------------|


[Chorus] x3

G|-------|-------|-------|-------|--------------------------|
D|-------|-------|-------|-------|--------------------------|
A|-3-3-3-|-------|-5-5-5-|-------|-7-7-7-7-7-7-7-7-7-7-7-7--|
E|-------|-3-3-3-|-------|-5-5-5-|--------------------------|


[Verse] x2

G|--------------------------|-----------------------|---------------------------|-----------------------|
D|--------------------------|-----------------------|---------------------------|-----------------------|
A|------7-7-7-7-7-7-7-7-7-7-|-----7-7-7-7-7-7-7-7-7-|-----7-7-7-7-7-7-7-7-7-7-7-|-8-8-7-7-7-7-7-7-7-7-7-|
E|-5-5----------------------|-5-5-------------------|-5-5-----------------------|-----------------------|


[Chorus] x3

G|-------|-------|-------|-------|--------------------------|
D|-------|-------|-------|-------|--------------------------|
A|-3-3-3-|-------|-5-5-5-|-------|-7-7-7-7-7-7-7-7-7-7-7-7--|
E|-------|-3-3-3-|-------|-5-5-5-|--------------------------|


[Verse] x2

G|--------------------------|-----------------------|---------------------------|-----------------------|
D|--------------------------|-----------------------|---------------------------|-----------------------|
A|------7-7-7-7-7-7-7-7-7-7-|-----7-7-7-7-7-7-7-7-7-|-----7-7-7-7-7-7-7-7-7-7-7-|-8-8-7-7-7-7-7-7-7-7-7-|
E|-5-5----------------------|-5-5-------------------|-5-5-----------------------|-----------------------|


[Chorus] x3

G|-------|-------|-------|-------|--------------------------|
D|-------|-------|-------|-------|--------------------------|
A|-3-3-3-|-------|-5-5-5-|-------|-7-7-7-7-7-7-7-7-7-7-7-7--|
E|-------|-3-3-3-|-------|-5-5-5-|--------------------------|


[Verse] x2

G|--------------------------|-----------------------|---------------------------|-----------------------|
D|--------------------------|-----------------------|---------------------------|-----------------------|
A|------7-7-7-7-7-7-7-7-7-7-|-----7-7-7-7-7-7-7-7-7-|-----7-7-7-7-7-7-7-7-7-7-7-|-8-8-7-7-7-7-7-7-7-7-7-|
E|-5-5----------------------|-5-5-------------------|-5-5-----------------------|-----------------------|


[Chorus] x3

G|-------|-------|-------|-------|--------------------------|
D|-------|-------|-------|-------|--------------------------|
A|-3-3-3-|-------|-5-5-5-|-------|-7-7-7-7-7-7-7-7-7-7-7-7--|
E|-------|-3-3-3-|-------|-5-5-5-|--------------------------|


[End]

G|----------|
D|----------|
A|------7---|
E|-5-5------|



That's all
Enjoy and Rate
Suggest correction
Give kudos to tab author, rate the tab!
1 2 3 4 5
comments
print report bad tab
guest
You may want to rate the tab now too:
select rating
Wanna post a correction for this tab? Suggest correction