Oops, an error
Loading. Please wait.

Knife Edge Bass Tab

version 2
version 2

Whole song

by GBH
374 views 1 this week
no commentswrite comment
1 2 3 4 5
2 more votes to show rating
add to favorites
launch autoscroll
font size
0
reset
guitar tuner
Autoscroll
slow
fast
+/-
esc
set tempo
stop
Help us to improve Ultimate-Guitar.com Take our survey!
×
Author
Right after the gutar does the intro play this

Intro
(2x)
G------------------|
D--------2---------|
A--44444-----------|
E------------------|
Then play this
(6x)Also for the guitar solo
G--------------------------------|
D--------22222----------22-------|
A--44444----------44444----22----|
E--------------------------------|
Then this but
(3x)
G--------------------------------|
D--------------------------------|
A--44444-22-11-------------------|
E--------------------------------|
On the fourth time play like this
G-----------------|
D-----------------|
A-4(let ring)-2-1-|
E-----------------|
Yeah the song basically plays twice
Suggest correction
Give kudos to tab author, rate the tab!
1 2 3 4 5
comments
print report bad tab
guest
You may want to rate the tab now too:
select rating
Wanna post a correction for this tab? Suggest correction