Oops, an error
Loading. Please wait.

Lycantrophy Bass Tab

by GBH
589 views 1 this week
no commentswrite comment
1 2 3 4 5
please rate
add to favorites
launch autoscroll
font size
0
reset
guitar tuner
Autoscroll
slow
fast
+/-
esc
set tempo
stop
Help us to improve Ultimate-Guitar.com Take our survey!
×
G---------------------------|
D---------------------------| x4
A---------------------------|
E--9--7---9-X-X-X-X-X-X-X-X-| 

G------------------------------------------|
D------------------------------------------| x6
A-------------7-7-7-7--9--9--9--9-10---9-7-|
E--9--9--9--9------------------------------|

G---------------------------|
D---------------------------| x4
A---------------------------|
E--9--7---9-X-X-X-X-X-X-X-X-| 

G------------------------------------------|
D------------------------------------------| x2
A-------------7-7-7-7--9--9--9--9-10---9-7-|
E--9--9--9--9------------------------------|

G-------------------------------------|
D-------------------------------------| x2
A---------------------7-7-7-7-7-7-7-7-|
E-10-10-10-10-5-5-5-5-----------------|

G------------------------------------------|
D------------------------------------------| x6
A-------------7-7-7-7--9--9--9--9-10---9-7-|
E--9--9--9--9------------------------------|

G---------------------------|
D---------------------------| x4
A---------------------------|
E--9--7---9-X-X-X-X-X-X-X-X-| 

G------------------------------------------|
D------------------------------------------| x2
A-------------7-7-7-7--9--9--9--9-10---9-7-|
E--9--9--9--9------------------------------|

G-------------------------------------|
D-------------------------------------| x2
A---------------------7-7-7-7-7-7-7-7-|
E-10-10-10-10-5-5-5-5-----------------|

G------------------------------------------|
D------------------------------------------| x6
A-------------7-7-7-7--9--9--9--9-10---9-7-|
E--9--9--9--9------------------------------|

G---------------------------|
D---------------------------| x4
A---------------------------|
E--9--7---9-X-X-X-X-X-X-X-X-| 

G------------------------------------------|
D------------------------------------------| x2
A-------------7-7-7-7--9--9--9--9-10---9-7-|
E--9--9--9--9------------------------------|

G-------------------------------------|
D-------------------------------------| x2
A---------------------7-7-7-7-7-7-7-7-|
E-10-10-10-10-5-5-5-5-----------------|

G------------------------------------------|
D------------------------------------------| x4
A-------------7-7-7-7--9--9--9--9-10---9-7-|
E--9--9--9--9------------------------------|

****************************************************************************
figured it'd be easiest to make it match the guitar tab, so no verse chorus etc. labels.
Suggest correction
Give kudos to tab author, rate the tab!
1 2 3 4 5
comments
print report bad tab
guest
You may want to rate the tab now too:
select rating
Please do not post tabs as comments. Select "correction" instead!