Oops, an error
Loading. Please wait.

Perfume And Piss Bass Tab

by GBH
4 views 1 this week
no commentswrite comment
1 2 3 4 5
3 more votes to show rating
add to favorites
launch autoscroll
font size
0
reset
guitar tuner
Autoscroll
slow
fast
+/-
esc
set tempo
stop
Help us to improve Ultimate-Guitar.com Take our survey!
×
Author
Difficulty
novice
                             GBH - PERFUME AND PISS

Tabbed by: Rottney (reconssuck)
E-mail: reconssuck@hotmail.de

Artist: GBH
Song: Perfume And Piss
Album: Perfume And Piss (2010)


[Intro] x4

G|-----------------|-----------------|
D|-----------------|-----------------|
A|-----------------|-----------------|
E|-5-5-5-5-5-5-5-5-|-5-5-5-5-5-5-5-5-|


[Main Riff] x6

G|---------------|-----------------|-----------------------|-------|
D|---------------|-----------------|-----------------------|-------|
A|---------------|-----------------|-----------------------|-------|
E|-5-5-3-3-5-5-5-|-8-8-8-8-8-8-8-8-|-3-3-3-3-3-3-3-3-3-3-3-|-1-3---|


[Chorus] x4

G|-------------|---------------|
D|-------------|---------------|
A|-------------|-------5-5-5-5-|
E|-5-5-5-8-8-8-|-3-3-3---------|


[Chorus End] x3

G|-----------------------|---------|
D|-----------------------|---------|
A|-----------------------|---------|
E|-7-7-7-7-7-7-7-7-7-7-7-|-5-5-5-5-|


[Chorus End 2]

G|---------------|---------------|
D|---------------|---------------|
A|---------------|-5-5-5-5-5-5-5-|
E|-7-7-7-7-7-7-7-|---------------|


[Main Riff] x4

G|---------------|-----------------|-----------------------|-------|
D|---------------|-----------------|-----------------------|-------|
A|---------------|-----------------|-----------------------|-------|
E|-5-5-3-3-5-5-5-|-8-8-8-8-8-8-8-8-|-3-3-3-3-3-3-3-3-3-3-3-|-1-3---|


[Chorus] x4

G|-------------|---------------|
D|-------------|---------------|
A|-------------|-------5-5-5-5-|
E|-5-5-5-8-8-8-|-3-3-3---------|


[Chorus End] x3

G|-----------------------|---------|
D|-----------------------|---------|
A|-----------------------|---------|
E|-7-7-7-7-7-7-7-7-7-7-7-|-5-5-5-5-|


[Chorus End 2]

G|---------------|---------------|
D|---------------|---------------|
A|---------------|-5-5-5-5-5-5-5-|
E|-7-7-7-7-7-7-7-|---------------|


[Bridge] x4

G|-----------------|-----------------|
D|-----------------|-----------------|
A|-----------------|-----------------|
E|-5-5-5-5-5-5-5-5-|-5-5-5-5-5-5-5-5-|


[Main Riff] x4

G|---------------|-----------------|-----------------------|-------|
D|---------------|-----------------|-----------------------|-------|
A|---------------|-----------------|-----------------------|-------|
E|-5-5-3-3-5-5-5-|-8-8-8-8-8-8-8-8-|-3-3-3-3-3-3-3-3-3-3-3-|-1-3---|


[Chorus] x4

G|-------------|---------------|
D|-------------|---------------|
A|-------------|-------5-5-5-5-|
E|-5-5-5-8-8-8-|-3-3-3---------|


[Chorus End] x3

G|-----------------------|---------|
D|-----------------------|---------|
A|-----------------------|---------|
E|-7-7-7-7-7-7-7-7-7-7-7-|-5-5-5-5-|


[Chorus End 2]

G|---------------|---------------|
D|---------------|---------------|
A|---------------|-5-5-5-5-5-5-5-|
E|-7-7-7-7-7-7-7-|---------------|


[Main Riff] x4

G|---------------|-----------------|-----------------------|-------|
D|---------------|-----------------|-----------------------|-------|
A|---------------|-----------------|-----------------------|-------|
E|-5-5-3-3-5-5-5-|-8-8-8-8-8-8-8-8-|-3-3-3-3-3-3-3-3-3-3-3-|-1-3---|


[Chorus] x4

G|-------------|---------------|
D|-------------|---------------|
A|-------------|-------5-5-5-5-|
E|-5-5-5-8-8-8-|-3-3-3---------|


[Chorus End] x3

G|-----------------------|---------|
D|-----------------------|---------|
A|-----------------------|---------|
E|-7-7-7-7-7-7-7-7-7-7-7-|-5-5-5-5-|


[Chorus End 2]

G|---------------|---------------|
D|---------------|---------------|
A|---------------|-5-5-5-5-5-5-5-|
E|-7-7-7-7-7-7-7-|---------------|


[Outro]

G|-----------|-------------|-------------|
D|-----------|-------------|-------------|
A|-----------|-------------|-------------|
E|-5-5-5-5-5-|-5-5-5-5-5-6-|-5-5-5-5-5---|


That's all
Enjoy and Rate
Suggest correction
Give kudos to tab author, rate the tab!
1 2 3 4 5
comments
print report bad tab
guest
You may want to rate the tab now too:
select rating
Wanna post a correction for this tab? Suggest correction