Oops, an error
Loading. Please wait.

San Jose Wind Bass Tab

by GBH
1 view 1 this week
no commentswrite comment
1 2 3 4 5
3 more votes to show rating
add to favorites
launch autoscroll
font size
0
reset
guitar tuner
Autoscroll
slow
fast
+/-
esc
set tempo
stop
Help us to improve Ultimate-Guitar.com Take our survey!
×
Author
Difficulty
novice
                             GBH - SAN JOSE WIND

Tabbed by: Rottney (reconssuck)
E-mail: reconssuck@hotmail.de

Artist: GBH
Song: San Jose Wind
Album: Perfume And Piss (2010)


[Main Riff] x3

G|-------------|-------------|-------------|-----------------|
D|-----------7-|-----------7-|-----------7-|-----------------|
A|-7-7-7-7-7---|-7-7-7-7-7---|-7-7-7-7-7---|-----------------|
E|-------------|-------------|-------------|-7-7-7-7-7-7-7---|


[Chorus]

G|----------|-------------|----------|-----------------|
D|----------|-------------|----------|-----------------|
A|----------|-5-7-5-5-5-5-|------5-5-|-7-7-7-7-7-7-7-7-|
E|-3-3--5-5-|-------------|-3-3------|-----------------|

G|----------|-------------|-------------|-------------|---------------|---------------|
D|----------|-------------|-------------|-------------|---------------|---------------|
A|----------|-5-7-5-5-5-5-|-------------|-------------|---------------|---------------|
E|-3-3--5-5-|-------------|-3-3-3-3-3-3-|-5-5-5-5-5-5-|-3-3-3-3-3-3-3-|-5-5-5-5-5-5-5-|

G|---------------|---------------|------------|
D|---------------|---------------|------------|
A|---------------|---------------|------------|
E|-3-3-3-3-3-3-3-|-5-5-5-5-5-5-5-|-8-8-8-8-10-|


[Main Riff] x4

G|-------------|-------------|-------------|-----------------|
D|-----------7-|-----------7-|-----------7-|-----------------|
A|-7-7-7-7-7---|-7-7-7-7-7---|-7-7-7-7-7---|-----------------|
E|-------------|-------------|-------------|-7-7-7-7-7-7-7---|


[Chorus]

G|----------|-------------|----------|-----------------|
D|----------|-------------|----------|-----------------|
A|----------|-5-7-5-5-5-5-|------5-5-|-7-7-7-7-7-7-7-7-|
E|-3-3--5-5-|-------------|-3-3------|-----------------|

G|----------|-------------|-------------|-------------|---------------|---------------|
D|----------|-------------|-------------|-------------|---------------|---------------|
A|----------|-5-7-5-5-5-5-|-------------|-------------|---------------|---------------|
E|-3-3--5-5-|-------------|-3-3-3-3-3-3-|-5-5-5-5-5-5-|-3-3-3-3-3-3-3-|-5-5-5-5-5-5-5-|

G|---------------|---------------|------------|
D|---------------|---------------|------------|
A|---------------|---------------|------------|
E|-3-3-3-3-3-3-3-|-5-5-5-5-5-5-5-|-8-8-8-8-10-|


[Bridge] x4

G|-----------|-----------------|
D|-----------|-----------------|
A|-----------|-----------------|
E|-0-0-0-0-5-|-0-0-0-0-0-0-0-0-|


[Bridge Riff 2] x4

G|--------|
D|--------|
A|--------|
E|-0--0---|


[Bridge Riff 3] x2

G|-------------|-------------|-------------|-----------------|
D|-------------|-------------|-------------|-----------------|
A|-7-7-7-7-7---|-7-7-7-7-7---|-7-7-7-7-7---|-----------------|
E|-----------5-|-----------5-|-----------5-|-7-7-7-7-7-7-7-7-|


[Bridge Riff 4]

G|-------------|----------------------|
D|-------------|----------------------|
A|-------------|----------------------|
E|-7-7-7-7-7-7-|-7-7-7-7-7-7-7-7-7----|


[Main Riff] x4

G|-------------|-------------|-------------|-----------------|
D|-----------7-|-----------7-|-----------7-|-----------------|
A|-7-7-7-7-7---|-7-7-7-7-7---|-7-7-7-7-7---|-----------------|
E|-------------|-------------|-------------|-7-7-7-7-7-7-7---|


[Chorus]

G|----------|-------------|----------|-----------------|
D|----------|-------------|----------|-----------------|
A|----------|-5-7-5-5-5-5-|------5-5-|-7-7-7-7-7-7-7-7-|
E|-3-3--5-5-|-------------|-3-3------|-----------------|

G|----------|-------------|-------------|-------------|---------------|---------------|
D|----------|-------------|-------------|-------------|---------------|---------------|
A|----------|-5-7-5-5-5-5-|-------------|-------------|---------------|---------------|
E|-3-3--5-5-|-------------|-3-3-3-3-3-3-|-5-5-5-5-5-5-|-3-3-3-3-3-3-3-|-5-5-5-5-5-5-5-|

G|---------------|---------------|------------|
D|---------------|---------------|------------|
A|---------------|---------------|------------|
E|-3-3-3-3-3-3-3-|-5-5-5-5-5-5-5-|-8-8-8-8-10-|


[Outro] 

G|-------------|-------------|-------------|-----------------|
D|-----------7-|-----------7-|-----------7-|-----------------|
A|-7-7-7-7-7---|-7-7-7-7-7---|-7-7-7-7-7---|-----------------|
E|-------------|-------------|-------------|-7-7-7-7-7-7-7---|
Suggest correction
Give kudos to tab author, rate the tab!
1 2 3 4 5
comments
print report bad tab
guest
You may want to rate the tab now too:
select rating
Wanna post a correction for this tab? Suggest correction