Oops, an error
Loading. Please wait.

See The Man Run Bass Tab

by GBH
1 view 1 this week
no commentswrite comment
1 2 3 4 5
3 more votes to show rating
add to favorites
launch autoscroll
font size
0
reset
guitar tuner
Autoscroll
slow
fast
+/-
esc
set tempo
stop
Help us to improve Ultimate-Guitar.com Take our survey!
×
Author
Difficulty
novice
                             GBH - SEE THE MAN RUN

Tabbed by: Rottney (reconssuck)
E-mail: reconssuck@hotmail.de

Artist: GBH
Song: See The Man Run
Album: City Babys Revenge (1984)





[Intro]

G|---------|---------|---------|
D|---------|---------|---------|
A|---------|---------|---------|
E|-5--5----|-5--5----|-5--5----|


[Verse] x8

G|--------------|----------------|
D|--------------|----------------|
A|-7-7----------|-7-7-7-7--------|
E|-----8-8-8-8--|---------8-8-8--|


[Chorus] x2

G|--------------|-------------------------|
D|--------------|-------------------------|
A|-5---5---5----|---------3-5-5-5-5-5-5-5-|
E|---3---3---3--|-3-3-3-3-----------------|

[Chorus End]

G|---------------------|------------------------|------------|
D|---------------------|------------------------|------------|
A|-3-3-3-3-3-3-3-3-3-3-|-3-3-3-3-3-3-3-3-3-3--3-|------------|
E|---------------------|------------------------|-8-7-8------|

[Verse] x8

G|--------------|----------------|
D|--------------|----------------|
A|-7-7----------|-7-7-7-7--------|
E|-----8-8-8-8--|---------8-8-8--|


[Chorus] x2

G|--------------|-------------------------|
D|--------------|-------------------------|
A|-5---5---5----|---------3-5-5-5-5-5-5-5-|
E|---3---3---3--|-3-3-3-3-----------------|


[Chorus End]

G|---------------------|------------------------|------------|
D|---------------------|------------------------|------------|
A|-3-3-3-3-3-3-3-3-3-3-|-3-3-3-3-3-3-3-3-3-3--3-|------------|
E|---------------------|------------------------|-8-7-8------|

[Solo Backing] x2

G|---------------|-----------------|---------------|---------------|
D|---------------|-----------------|---------------|---------------|
A|-7-7-7-7-7-7-7-|-7-7-7-7-7-7-7-7-|-7-7-7-7-7-7-7-|-7-7-7-7-7-7-7-|
E|---------------|-----------------|---------------|---------------|


[Verse] x4

G|--------------|----------------|
D|--------------|----------------|
A|-7-7----------|-7-7-7-7--------|
E|-----8-8-8-8--|---------8-8-8--|

[Chorus] x2

G|--------------|-------------------------|
D|--------------|-------------------------|
A|-5---5---5----|---------3-5-5-5-5-5-5-5-|
E|---3---3---3--|-3-3-3-3-----------------|


[Chorus End]

G|---------------------|------------------------|------------|
D|---------------------|------------------------|------------|
A|-3-3-3-3-3-3-3-3-3-3-|-3-3-3-3-3-3-3-3-3-3--3-|------------|
E|---------------------|------------------------|-8-7-8------|


[Verse] x8

G|--------------|----------------|
D|--------------|----------------|
A|-7-7----------|-7-7-7-7--------|
E|-----8-8-8-8--|---------8-8-8--|

[Chorus] x2

G|--------------|-------------------------|
D|--------------|-------------------------|
A|-5---5---5----|---------3-5-5-5-5-5-5-5-|
E|---3---3---3--|-3-3-3-3-----------------|


[Chorus End]

G|---------------------|------------------------|------------|
D|---------------------|------------------------|------------|
A|-3-3-3-3-3-3-3-3-3-3-|-3-3-3-3-3-3-3-3-3-3--3-|------------|
E|---------------------|------------------------|-8-5-7------|

[End]

G|--------|
D|--------|
A|-7------|
E|--------|



That's all
Enjoy and Rate
Suggest correction
Give kudos to tab author, rate the tab!
1 2 3 4 5
comments
print report bad tab
guest
You may want to rate the tab now too:
select rating
Wanna post a correction for this tab? Suggest correction