Oops, an error
Loading. Please wait.

Self Destruct Bass Tab

by GBH
730 views 1 this week
no commentswrite comment
1 2 3 4 5
please rate
add to favorites
launch autoscroll
font size
0
reset
guitar tuner
Autoscroll
slow
fast
+/-
esc
set tempo
stop
Help us to improve Ultimate-Guitar.com Take our survey!
×
Intro (Bass comes in at 6 seconds
G------------|------------|------------|------------|
D------------|------------|------------|------------|
A-2----------|-2----------|-2----------|-2----------|
E----3--5--3-|----3--5--3-|----3--5--3-|----3--5--3-|

Verse
G------------|------------|------------|------------|
D------------|------------|------------|------------|
A-2----------|-2----------|-2----------|-2----------|
E----3--5--3-|----3--5--3-|----3--5--3-|----3--5--3-|

Chorus
G-------------|-------------|-------------|-------------|
D-------------|-------------|-------------|-------------|
A-5--2--0--2--|-5--2--0--2--|-5--2--0--2--|-5--2--0--2--|
E-------------|-------------|-------------|-------------|

G---------------------------------|
D---------------------------------|
A---------------------------------|
E-3-3-3-3-3-3-3-3-2-2-2-2-2-2-2-2-|

Main Riff
G------------|------------|------------|------------|
D------------|------------|------------|------------|
A-2----------|-2----------|-2----------|-2----------|
E----3--5--3-|----3--5--3-|----3--5--3-|----3--5--3-|

Verse
G------------|------------|------------|------------|
D------------|------------|------------|------------|
A-2----------|-2----------|-2----------|-2----------|
E----3--5--3-|----3--5--3-|----3--5--3-|----3--5--3-|

Chorus
G-------------|-------------|-------------|-------------|
D-------------|-------------|-------------|-------------|
A-5--2--0--2--|-5--2--0--2--|-5--2--0--2--|-5--2--0--2--|
E-------------|-------------|-------------|-------------|

G---------------------------------|
D---------------------------------|
A---------------------------------|
E-3-3-3-3-3-3-3-3-2-2-2-2-2-2-2-2-|

Main Riff
G------------|------------|------------|------------|
D------------|------------|------------|------------|
A-2----------|-2----------|-2----------|-2----------|
E----3--5--3-|----3--5--3-|----3--5--3-|----3--5--3-|

G------------|------------|------------|------------|
D------------|------------|------------|------------|
A-2----------|-2----------|-2----------|-2----------|
E----3--5--3-|----3--5--3-|----3--5--3-|----3--5--3-|

G------------|------------|------------|------------|
D------------|------------|------------|------------|
A-2----------|-2----------|-2----------|-2----------|
E----3--5--3-|----3--5--3-|----3--5--3-|----3--5--3-|

Verse
G------------|------------|------------|------------|
D------------|------------|------------|------------|
A-2----------|-2----------|-2----------|-2----------|
E----3--5--3-|----3--5--3-|----3--5--3-|----3--5--3-|

Chorus
G-------------|-------------|-------------|-------------|
D-------------|-------------|-------------|-------------|
A-5--2--0--2--|-5--2--0--2--|-5--2--0--2--|-5--2--0--2--|
E-------------|-------------|-------------|-------------|

G---------------------------------|
D---------------------------------|
A---------------------------------|
E-3-3-3-3-3-3-3-3-2-2-2-2-2-2-2-2-|

(Guitar goes back to intro)
G------------------|
D------------------|
A-2----------------|
E------------------|

Main Riff
G------------|------------|------------|------------|
D------------|------------|------------|------------|
A-2----------|-2----------|-2----------|-2----------|
E----3--5--3-|----3--5--3-|----3--5--3-|----3--5--3-|

Chorus
G-------------|-------------|-------------|-------------|
D-------------|-------------|-------------|-------------|
A-5--2--0--2--|-5--2--0--2--|-5--2--0--2--|-5--2--0--2--|
E-------------|-------------|-------------|-------------|

G---------------------------------|
D---------------------------------|
A---------------------------------|
E-3-3-3-3-3-3-3-3-2-2-2-2-2-2-2-2-|

Chorus
G-------------|-------------|-------------|-------------|
D-------------|-------------|-------------|-------------|
A-5--2--0--2--|-5--2--0--2--|-5--2--0--2--|-5--2--0--2--|
E-------------|-------------|-------------|-------------|
                                   END
G---------------------------------|---|
D---------------------------------|---|
A---------------------------------|-2-|
E-3-3-3-3-3-3-3-3-2-2-2-2-2-2-2-2-|---|


****************************************************************************
Basic song, if it's labelled Verse thats wher vox are...




Suggest correction
Give kudos to tab author, rate the tab!
1 2 3 4 5
comments
print report bad tab
guest
You may want to rate the tab now too:
select rating
Wanna post a correction for this tab? Suggest correction