Oops, an error
Loading. Please wait.

Sick Boy Bass Tab

by GBH
34 views 3 this week
no commentswrite comment
1 2 3 4 5
3 more votes to show rating
add to favorites
launch autoscroll
font size
0
reset
guitar tuner
Autoscroll
slow
fast
+/-
esc
set tempo
stop
Help us to improve Ultimate-Guitar.com Take our survey!
×
Author
Difficulty
novice
                             GBH - SICK BOY

Tabbed by: Rottney (reconssuck)
E-mail: reconssuck@hotmail.de

Artist: GBH
Song: Sick Boy
Album: City Baby Attacked by Rats (1982)



[Intro] x7

G|-------|
D|-------|
A|-------|
E|-0---0-|


[Verse] x4

G|---------------|---------------|---------------|---------------|
D|---------------|---------------|---------------|---------------|
A|-7-7-7-7-7-7-7-|-5-7-7-7-7-7-7-|-7-7-7-7-7-7-7-|-5-7-7-7-7-7-7-|
E|---------------|---------------|---------------|---------------|


[Chorus] x3

G|---------------|-------------|-----------------|-----------|
D|---------------|-------------|-----------------|-----------|
A|-9-9-9-9-9-9-9-|-10-10-9-9-9-|-7-7-7-7-7-7-7-5-|-7-7-7-7---|
E|---------------|-------------|-----------------|-----------|


[Verse] x4

G|---------------|---------------|---------------|---------------|
D|---------------|---------------|---------------|---------------|
A|-7-7-7-7-7-7-7-|-5-7-7-7-7-7-7-|-7-7-7-7-7-7-7-|-5-7-7-7-7-7-7-|
E|---------------|---------------|---------------|---------------|


[Chorus] x3

G|---------------|-------------|-----------------|-----------|
D|---------------|-------------|-----------------|-----------|
A|-9-9-9-9-9-9-9-|-10-10-9-9-9-|-7-7-7-7-7-7-7-5-|-7-7-7-7---|
E|---------------|-------------|-----------------|-----------|


[Bridge] x4

G|---------|----------|
D|---------|----------|
A|-9--7--9-|-9--10--9-|
E|---------|----------|


[Verse] x10

G|---------------|---------------|---------------|---------------|
D|---------------|---------------|---------------|---------------|
A|-7-7-7-7-7-7-7-|-5-7-7-7-7-7-7-|-7-7-7-7-7-7-7-|-5-7-7-7-7-7-7-|
E|---------------|---------------|---------------|---------------|


[Chorus] x3

G|---------------|-------------|-----------------|-----------|
D|---------------|-------------|-----------------|-----------|
A|-9-9-9-9-9-9-9-|-10-10-9-9-9-|-7-7-7-7-7-7-7-5-|-7-7-7-7---|
E|---------------|-------------|-----------------|-----------|


[Verse] x8

G|---------------|---------------|---------------|---------------|
D|---------------|---------------|---------------|---------------|
A|-7-7-7-7-7-7-7-|-5-7-7-7-7-7-7-|-7-7-7-7-7-7-7-|-5-7-7-7-7-7-7-|
E|---------------|---------------|---------------|---------------|


[Chorus] x3

G|---------------|-------------|-----------------|-----------|
D|---------------|-------------|-----------------|-----------|
A|-9-9-9-9-9-9-9-|-10-10-9-9-9-|-7-7-7-7-7-7-7-5-|-7-7-7-7---|
E|---------------|-------------|-----------------|-----------|


[Verse] x16

G|---------------|---------------|---------------|---------------|
D|---------------|---------------|---------------|---------------|
A|-7-7-7-7-7-7-7-|-5-7-7-7-7-7-7-|-7-7-7-7-7-7-7-|-5-7-7-7-7-7-7-|
E|---------------|---------------|---------------|---------------|

(song breaks apart after that but end on)


[End]

G|--------|
D|--------|
A|-7------|
E|--------|



That's all
Enjoy and Rate
Suggest correction
Give kudos to tab author, rate the tab!
1 2 3 4 5
comments
print report bad tab
guest
You may want to rate the tab now too:
select rating
Wanna post a correction for this tab? Suggest correction