Oops, an error
Loading. Please wait.

Sick Boy Tab

version 2
version 2

Whole song

by GBH
245 views 9 this week
no commentswrite comment
1 2 3 4 5
3 more votes to show rating
add to favorites
launch autoscroll
font size
0
reset
how to read this tab
guitar tuner
×
Best way to learn
"Sick Boy"
Autoscroll
slow
fast
+/-
esc
set tempo
stop
Artist: G.B.H.
Song: Sick Boy
Album: City Baby Attacked By Rats

Intro                                                                                                   x2
e|--------------------------|--------------------------|--------------------------|--------------------------|
B|--------------------------|--------------------------|--------------------------|--------------------------|
G|--------------------------|--------------------------|--------------------------|--------------------------|
D|--------------------------|--------------------------|--------------------------|--------------------------|
A|--------7-----5-----4--5--|--------7-----5-----4--5--|--------7-----5-----4--5--|--------7-----5-----4--5--|
E|--0--0-----0-----0--------|--0--0-----0-----0--------|--0--0-----0-----0--------|--0--0-----0-----0--------|
   PM--|    PM    PM          PM--|    PM    PM          PM--|    PM    PM          PM--|    PM    PM

e|-----------------------|-----------------------|-----------------------|-----------------------|
B|-----------------------|-----------------------|-----------------------|-----------------------|
G|-----------------------|-----------------------|-----------------------|-----------------------|
D|--9--9-9-9-9-9--7s9-9--|--9--9-9-9-9-9--7s9-9--|--9--9-9-9-9-9--7s9-9--|--9--9-9-9-9-9--7s9-9--|
A|--7--7-7-7-7-7--5s7-7--|--7--7-7-7-7-7--5s7-7--|--7--7-7-7-7-7--5s7-7--|--7--7-7-7-7-7--5s7-7--|
E|-----------------------|-----------------------|-----------------------|-----------------------|


Verse 1
e|-----------------------|-----------------------|-----------------------|-----------------------|
B|-----------------------|-----------------------|-----------------------|-----------------------|
G|-----------------------|-----------------------|-----------------------|-----------------------|
D|--9--9-9-9-9-9--7s9-9--|--9--9-9-9-9-9--7s9-9--|--9--9-9-9-9-9--7s9-9--|--9--9-9-9-9-9--7s9-9--|
A|--7--7-7-7-7-7--5s7-7--|--7--7-7-7-7-7--5s7-7--|--7--7-7-7-7-7--5s7-7--|--7--7-7-7-7-7--5s7-7--|
E|-----------------------|-----------------------|-----------------------|-----------------------|
   I'm strapped           Got electrodes in        My nerves are really bed It's the best 
              into my bed               my head                                 time I ever had

Chorus                                                                                  x3
e|-----------------------|-----------------------|-----------------------|-----------------------|
B|-----------------------|-----------------------|-----------------------|-----------------------|
G|-----------------------|-----------------------|-----------------------|-----------------------|
D|-11-11--11--13-13-1111-|--9--9-9-9-9-9--7s9-9--|-11-11--11--13-13-1111-|--9--9-9-9-9-9--7s9-9--|
A|--9--9---9--11-11--9-9-|--7--7-7-7-7-7--5s7-7--|--9--9---9--11-11--9-9-|--7--7-7-7-7-7--5s7-7--|
E|-----------------------|-----------------------|-----------------------|-----------------------|
   I'm a                   and there is no cure    I'm a                   There should be more
     sick boy                                         sick boy

Verse 2                                                                                 x3
e|-----------------------|-----------------------|-----------------------|-----------------------|
B|-----------------------|-----------------------|-----------------------|-----------------------|
G|-----------------------|-----------------------|-----------------------|-----------------------|
D|--9--9-9-9-9-9--7s9-9--|--9--9-9-9-9-9--7s9-9--|--9--9-9-9-9-9--7s9-9--|--9--9-9-9-9-9--7s9-9--|
A|--7--7-7-7-7-7--5s7-7--|--7--7-7-7-7-7--5s7-7--|--7--7-7-7-7-7--5s7-7--|--7--7-7-7-7-7--5s7-7--|
E|-----------------------|-----------------------|-----------------------|-----------------------|
    But I'm happy          like a sardine in a can. People taking notes,   people in white coats.
           the way I am,
Interlude
e|--------------------------|--------------------------|--------------------------|--------------------------|
B|--------------------------|--------------------------|--------------------------|--------------------------|
G|--------------------------|--------------------------|--------------------------|--------------------------|
D|-11-11--9--9--11--11-13-13|-11--11-9--9--11--11-13-13|-11--11-9--9--11--11-13-13|-11--11-9--9--11--11-13-13|
A|--9--9--7--7---9--9--11-11|--9--9--7--7---9--9--11-11|--9--9--7--7---9--9--11-11|--9--9--7--7---9--9--11-11|
E|--------------------------|--------------------------|--------------------------|--------------------------|

e|---------------------|----------------------|----------------------|-------------------------------|
B|---------------------|----------------------|----------------------|-------------------------------|
G|---------------------|----------------------|----------------------|-------------------------------|
D|--9------------------|--9-------------------|--9-------------------|--212019181716151413121110987--|
A|--7------------------|--7-------------------|--7-------------------|--212019181716151413121110987--|
E|---------------------|----------------------|----------------------|-------------------------------|
                                                                       (Pickslide)

Verse 3                                                                                 x3
e|-----------------------|-----------------------|-----------------------|-----------------------|
B|-----------------------|-----------------------|-----------------------|-----------------------|
G|-----------------------|-----------------------|-----------------------|-----------------------|
D|--9--9-9-9-9-9--7s9-9--|--9--9-9-9-9-9--7s9-9--|--9--9-9-9-9-9--7s9-9--|--9--9-9-9-9-9--7s9-9--|
A|--7--7-7-7-7-7--5s7-7--|--7--7-7-7-7-7--5s7-7--|--7--7-7-7-7-7--5s7-7--|--7--7-7-7-7-7--5s7-7--|
E|-----------------------|-----------------------|-----------------------|-----------------------|
    But I'm happy          like a sardine in a can. People taking notes,   people in white coats.
           the way I am,



Chorus                                                                                  x3
e|-----------------------|-----------------------|-----------------------|-----------------------|
B|-----------------------|-----------------------|-----------------------|-----------------------|
G|-----------------------|-----------------------|-----------------------|-----------------------|
D|-11-11--11--13-13-1111-|--9--9-9-9-9-9--7s9-9--|-11-11--11--13-13-1111-|--9--9-9-9-9-9--7s9-9--|
A|--9--9---9--11-11--9-9-|--7--7-7-7-7-7--5s7-7--|--9--9---9--11-11--9-9-|--7--7-7-7-7-7--5s7-7--|
E|-----------------------|-----------------------|-----------------------|-----------------------|
   I'm a                   and there is no cure    I'm a                   There should be more
     sick boy                                         sick boy

Verse 4                                                                         x3
e|-----------------------|-----------------------|-----------------------|-----------------------|
B|-----------------------|-----------------------|-----------------------|-----------------------|
G|-----------------------|-----------------------|-----------------------|-----------------------|
D|--9--9-9-9-9-9--7s9-9--|--9--9-9-9-9-9--7s9-9--|--9--9-9-9-9-9--7s9-9--|--9--9-9-9-9-9--7s9-9--|
A|--7--7-7-7-7-7--5s7-7--|--7--7-7-7-7-7--5s7-7--|--7--7-7-7-7-7--5s7-7--|--7--7-7-7-7-7--5s7-7--|
E|-----------------------|-----------------------|-----------------------|-----------------------|
   I see school           short skirts             But why must I suffer, for being a 
        girls every where,      and pigtailed hair.                             gymslip    lover? 


Chorus                                                                                  x3
e|-----------------------|-----------------------|-----------------------|-----------------------|
B|-----------------------|-----------------------|-----------------------|-----------------------|
G|-----------------------|-----------------------|-----------------------|-----------------------|
D|-11-11--11--13-13-1111-|--9--9-9-9-9-9--7s9-9--|-11-11--11--13-13-1111-|--9--9-9-9-9-9--7s9-9--|
A|--9--9---9--11-11--9-9-|--7--7-7-7-7-7--5s7-7--|--9--9---9--11-11--9-9-|--7--7-7-7-7-7--5s7-7--|
E|-----------------------|-----------------------|-----------------------|-----------------------|
   I'm a                   and there is no cure    I'm a                   There should be more
     sick boy                                         sick boy


Outro and Solo
Guitar 2                                                                                x4
e|-----------------------|-----------------------|-----------------------|-----------------------|
B|-----------------------|-----------------------|-----------------------|-----------------------|
G|-----------------------|-----------------------|-----------------------|-----------------------|
D|--9--9-9-9-9-9--7s9-9--|--9--9-9-9-9-9--7s9-9--|--9--9-9-9-9-9--7s9-9--|--9--9-9-9-9-9--7s9-9--|
A|--7--7-7-7-7-7--5s7-7--|--7--7-7-7-7-7--5s7-7--|--7--7-7-7-7-7--5s7-7--|--7--7-7-7-7-7--5s7-7--|
E|-----------------------|-----------------------|-----------------------|-----------------------|

Guitar 1
e|-----------------------|-----------------------|-----------------------|-----------------------|
B|-----------------------|-----------------------|-----------------------|-----------------------|
G|-----------------------|-----------------------|-----------------------|-----------------------|
D|--9--9-9-9-9-9--7s9-9--|--9--9-9-9-9-9--7s9-9--|--9--9-9-9-9-9--7s9-9--|--9--9-9-9-9-9--7s9-9--|
A|--7--7-7-7-7-7--5s7-7--|--7--7-7-7-7-7--5s7-7--|--7--7-7-7-7-7--5s7-7--|--7--7-7-7-7-7--5s7-7--|
E|-----------------------|-----------------------|-----------------------|-----------------------|

e|-----------------------|-----------------------------|----------------------|-------------------|
B|-----------------------|-----------------------------|----------------------|-------------------|
G|-----------------------|--12-14b16r14b16-14b16-12----|----------------------|-------------------|
D|--12h14p12h14p12h14p12-|--------------------------14-|--12----12------------|-------------------|
A|-----------------------|-----------------------------|-----14----14---------|-------------------|
E|-----------------------|-----------------------------|--------------12-14---|--9-10-12-10-9-10--|

e|-------------------|------------------------------|------------------------|-----------------------|
B|-------------------|------------------------------|--------------12----12--|--12-------------------|
G|-------------------|------------------12h14p12h14-|-p12h14p12h14-14b16r14b-|-r14b16-12-------------|
D|-------------------|------------------------------|------------------------|-----------14----------|
A|-------------------|------------------------------|------------------------|-----------------------|
E|--9-10-12-10-9-10--|--10p9-10p9-10p9--------------|------------------------|-----------------------|

e|-----------------------|-----------------------|-----------------------|-----------------------|
B|-----------------------|-----------------------|-----------------------|-----------------------|
G|-----------------------|-----------------------|-----------------------|-----------------------|
D|--9--9-9-9-9-9--7s9-9--|--9--9-9-9-9-9--7s9-9--|--9--9-9-9-9-9--7s9-9--|--9--9-9-9-9-9--7s9-9--|
A|--7--7-7-7-7-7--5s7-7--|--7--7-7-7-7-7--5s7-7--|--7--7-7-7-7-7--5s7-7--|--7--7-7-7-7-7--5s7-7--|
E|-----------------------|-----------------------|-----------------------|-----------------------|
Suggest correction
Give kudos to tab author, rate the tab!
1 2 3 4 5
comments
print report bad tab
guest
You may want to rate the tab now too:
select rating
Wanna post a correction for this tab? Suggest correction