Oops, an error
Loading. Please wait.

Slit Your Own Throat Bass

16 views 1 this week
no commentswrite comment
1 2 3 4 5
3 more votes to show rating
add to favorites
launch autoscroll
font size
0
reset
guitar tuner
×
Best way to learn
"Slit Your Own Throat"
Autoscroll
slow
fast
+/-
esc
set tempo
stop
Author
Difficulty
                             GBH - SLIT YOUR OWN THROAT

Tabbed by: Rottney (reconssuck)
E-mail: reconssuck@hotmail.de

Artist: GBH
Song: Slit Your Own Throat
Album: City Baby Attacked By Rats (1982)


[Intro] x2

G|--------|--------|
D|--------|--------|
A|-6------|-6------|
E|--------|--------|


[Main Riff] x6

G|---------------|-----------------|-------|----------------|
D|---------------|-----------------|---4---|----------------|
A|-6-6-6-6-6-6-6-|-6-6-6-6-6-6-6-6-|-4---4-|-6-6-6-6-6-6-6--|
E|---------------|-----------------|-------|----------------|


[Chorus] x3

G|---------------|---------------|
D|---------------|---------------|
A|-8-8-8-8-8-8-8-|-9-9-9-9-9-9-9-|
E|---------------|---------------|


[Chorus End]

G|---------------|---------------|
D|---------------|---------------|
A|-8-8-8-8-8-8-8-|---------------|
E|---------------|-9-------------|


[Main Riff] x6

G|---------------|-----------------|-------|----------------|
D|---------------|-----------------|---4---|----------------|
A|-6-6-6-6-6-6-6-|-6-6-6-6-6-6-6-6-|-4---4-|-6-6-6-6-6-6-6--|
E|---------------|-----------------|-------|----------------|


[Chorus] x3

G|---------------|---------------|
D|---------------|---------------|
A|-8-8-8-8-8-8-8-|-9-9-9-9-9-9-9-|
E|---------------|---------------|


[Chorus End]

G|---------------|---------------|
D|---------------|---------------|
A|-8-8-8-8-8-8-8-|---------------|
E|---------------|-9-------------|


[Main Riff] x4

G|---------------|-----------------|-------|----------------|
D|---------------|-----------------|---4---|----------------|
A|-6-6-6-6-6-6-6-|-6-6-6-6-6-6-6-6-|-4---4-|-6-6-6-6-6-6-6--|
E|---------------|-----------------|-------|----------------|


[Chorus] x3

G|---------------|---------------|
D|---------------|---------------|
A|-8-8-8-8-8-8-8-|-9-9-9-9-9-9-9-|
E|---------------|---------------|


[Chorus End]

G|---------------|---------------|
D|---------------|---------------|
A|-8-8-8-8-8-8-8-|---------------|
E|---------------|-9-------------|


[Main Riff] x6

G|---------------|-----------------|-------|----------------|
D|---------------|-----------------|---4---|----------------|
A|-6-6-6-6-6-6-6-|-6-6-6-6-6-6-6-6-|-4---4-|-6-6-6-6-6-6-6--|
E|---------------|-----------------|-------|----------------|


[Chorus] x3

G|---------------|---------------|
D|---------------|---------------|
A|-8-8-8-8-8-8-8-|-9-9-9-9-9-9-9-|
E|---------------|---------------|


[Chorus End]

G|---------------|---------------|
D|---------------|---------------|
A|-8-8-8-8-8-8-8-|---------------|
E|---------------|-9-------------|


[End]

G|---------------|
D|---------------|
A|-6-------------|
E|---------------|



That's all
Enjoy and Rate
Suggest correction
Give kudos to tab author, rate the tab!
1 2 3 4 5
comments
print report bad tab
guest
You may want to rate the tab now too:
select rating
Wanna post a correction for this tab? Suggest correction