Oops, an error
Loading. Please wait.

State Executioner Bass Tab

by GBH
22 views 15 this week
no commentswrite comment
1 2 3 4 5
3 more votes to show rating
add to favorites
launch autoscroll
font size
0
reset
guitar tuner
Autoscroll
slow
fast
+/-
esc
set tempo
stop
Help us to improve Ultimate-Guitar.com Take our survey!
×
Author
Difficulty
novice
                             GBH - STATE EXECUTIONER

Tabbed by: Rottney (reconssuck)
E-mail: reconssuck@hotmail.de

Artist: GBH
Song: State Executioner
Album: Leather Bristles Studs and Acne (1981)



[Verse] x8

G|------------------|
D|------------------|
A|-2-2-2-2-3-3-5-0--|
E|------------------|


[Chorus] x2

G|-----------|-----------|-----------|-----------|
D|-----------|-----------|-----------|-----------|
A|-----------|-----------|-----------|-----------|
E|-3-0-0-0-0-|-3-0-0-0-0-|-3-0-0-0-0-|-3-0-0-0-0-|


[Verse] x8

G|------------------|
D|------------------|
A|-2-2-2-2-3-3-5-0--|
E|------------------|


[Chorus] x2

G|-----------|-----------|-----------|-----------|
D|-----------|-----------|-----------|-----------|
A|-----------|-----------|-----------|-----------|
E|-3-0-0-0-0-|-3-0-0-0-0-|-3-0-0-0-0-|-3-0-0-0-0-|


[Verse] x8

G|------------------|
D|------------------|
A|-2-2-2-2-3-3-5-0--|
E|------------------|


[Chorus] x2

G|-----------|-----------|-----------|-----------|
D|-----------|-----------|-----------|-----------|
A|-----------|-----------|-----------|-----------|
E|-3-0-0-0-0-|-3-0-0-0-0-|-3-0-0-0-0-|-3-0-0-0-0-|


[Verse] x16

G|------------------|
D|------------------|
A|-2-2-2-2-3-3-5-0--|
E|------------------|


[Chorus] x2

G|-----------|-----------|-----------|-----------|
D|-----------|-----------|-----------|-----------|
A|-----------|-----------|-----------|-----------|
E|-3-0-0-0-0-|-3-0-0-0-0-|-3-0-0-0-0-|-3-0-0-0-0-|


[Verse] x8

G|------------------|
D|------------------|
A|-2-2-2-2-3-3-5-0--|
E|------------------|


[Chorus] x4

G|-----------|-----------|-----------|-----------|
D|-----------|-----------|-----------|-----------|
A|-----------|-----------|-----------|-----------|
E|-3-0-0-0-0-|-3-0-0-0-0-|-3-0-0-0-0-|-3-0-0-0-0-|

(song breaks apart after that but end on)


[End]

G|--------|
D|--------|
A|--------|
E|-0------|



That's all
Enjoy and Rate
Suggest correction
Give kudos to tab author, rate the tab!
1 2 3 4 5
comments
print report bad tab
guest
You may want to rate the tab now too:
select rating
Wanna post a correction for this tab? Suggest correction