Oops, an error
Loading. Please wait.

Time Bomb Bass Tab

version 1
version 1

Whole song

Interactive

by GBH
7 views 1 this week
no commentswrite comment
1 2 3 4 5
3 more votes to show rating
add to favorites
launch autoscroll
font size
0
reset
guitar tuner
Autoscroll
slow
fast
+/-
esc
set tempo
stop
Help us to improve Ultimate-Guitar.com Take our survey!
×
Author
Difficulty
novice
                             GBH - TIME BOMB

Tabbed by: Rottney (reconssuck)
E-mail: reconssuck@hotmail.de

Artist: GBH
Song: Time Bomb
Album: City Baby Attacked By Rats (1982)


[Intro]

G|------------|
D|------------|
A|-2\-14------|
E|------------|


[Main Riff] x8

G|-------|-------|----------------|
D|-------|-------|----------------|
A|-2-2-2-|-------|-4-4-4-4-4-4-4--|
E|-------|-2-2-2-|----------------|


[Chorus] x5

G|---------------|----------|
D|---------------|----------|
A|-5-5-5-5-5-5-5-|-2-4-2-4--|
E|---------------|----------|


[Chorus End]

G|---------------------------|
D|---------------------------|
A|-5-5-5-5-5-5-5-5-5-5-5-5-5-|
E|---------------------------|


[Main Riff] x8

G|-------|-------|----------------|
D|-------|-------|----------------|
A|-2-2-2-|-------|-4-4-4-4-4-4-4--|
E|-------|-2-2-2-|----------------|


[Chorus] x5

G|---------------|----------|
D|---------------|----------|
A|-5-5-5-5-5-5-5-|-2-4-2-4--|
E|---------------|----------|


[Chorus End]

G|---------------------------|
D|---------------------------|
A|-5-5-5-5-5-5-5-5-5-5-5-5-5-|
E|---------------------------|


[Bridge]

G|----------------|
D|----------------|
A|-7--7--7--7-7---|
E|----------------|


[Main Riff] x12

G|-------|-------|----------------|
D|-------|-------|----------------|
A|-2-2-2-|-------|-4-4-4-4-4-4-4--|
E|-------|-2-2-2-|----------------|


[Chorus] x5

G|---------------|----------|
D|---------------|----------|
A|-5-5-5-5-5-5-5-|-2-4-2-4--|
E|---------------|----------|


[Chorus End]

G|---------------------------|
D|---------------------------|
A|-5-5-5-5-5-5-5-5-5-5-5-5-5-|
E|---------------------------|


[Bridge]

G|----------------|
D|----------------|
A|-7--7--7--7-7---|
E|----------------|


[Main Riff] x8

G|-------|-------|----------------|
D|-------|-------|----------------|
A|-2-2-2-|-------|-4-4-4-4-4-4-4--|
E|-------|-2-2-2-|----------------|


[Chorus] x5

G|---------------|----------|
D|---------------|----------|
A|-5-5-5-5-5-5-5-|-2-4-2-4--|
E|---------------|----------|


[Chorus End]

G|---------------------------|
D|---------------------------|
A|-5-5-5-5-5-5-5-5-5-5-5-5-5-|
E|---------------------------|


[Bridge]

G|----------------|
D|----------------|
A|-7--7--7--7-7---|
E|----------------|


[Main Riff] x4

G|-------|-------|----------------|
D|-------|-------|----------------|
A|-2-2-2-|-------|-4-4-4-4-4-4-4--|
E|-------|-2-2-2-|----------------|



***********************************
| \ Slide down
***********************************


That's all
Enjoy and Rate
Suggest correction
Give kudos to tab author, rate the tab!
1 2 3 4 5
comments
print report bad tab
guest
You may want to rate the tab now too:
select rating
Wanna post a correction for this tab? Suggest correction