Oops, an error
Loading. Please wait.

Unique Bass Tab

by GBH
4 views 1 this week
no commentswrite comment
1 2 3 4 5
3 more votes to show rating
add to favorites
launch autoscroll
font size
0
reset
guitar tuner
Autoscroll
slow
fast
+/-
esc
set tempo
stop
Help us to improve Ultimate-Guitar.com Take our survey!
×
Author
Difficulty
novice
                             GBH - UNIQUE

Tabbed by: Rottney (reconssuck)
E-mail: reconssuck@hotmail.de

Artist: GBH
Song: Unique
Album: Perfume And Piss (2010)





[Main Riff] x6

G|---------|
D|---------|
A|---------|
E|-0-0-3-0-|

[Main Riff End]

G|---------|
D|---------|
A|---------|
E|-5--3--5-|

[Main Riff] x6

G|---------|
D|---------|
A|---------|
E|-0-0-3-0-|

[Main Riff End]

G|---------|
D|---------|
A|---------|
E|-5--3--5-|

[Main Riff] x6

G|---------|
D|---------|
A|---------|
E|-0-0-3-0-|

[Main Riff End]

G|---------|
D|---------|
A|---------|
E|-5--3--5-|


[Chorus]

G|---------------|----------|---------------|---------|---------|-----------|
D|---------------|----------|---------------|---------|---------|-----------|
A|---------------|----------|---------------|---------|---------|-----------|
E|-0-0-0-0-0-0-0-|-5--3--5--|-0-0-0-0-0-0-0-|-5--3--5-|-5--3--5-|-5--3--5---|

G|---------------|-------------|-----------|
D|---------------|-------------|-----------|
A|---------------|-------------|-----------|
E|-5-5-5-5-5-5-5-|-5-5-5-5-5-5-|-5-5-5-5-5-|

[Main Riff] x6

G|---------|
D|---------|
A|---------|
E|-0-0-3-0-|

[Main Riff End]

G|---------|
D|---------|
A|---------|
E|-5--3--5-|

[Main Riff] x6

G|---------|
D|---------|
A|---------|
E|-0-0-3-0-|

[Main Riff End]

G|---------|
D|---------|
A|---------|
E|-5--3--5-|

[Main Riff] x6

G|---------|
D|---------|
A|---------|
E|-0-0-3-0-|

[Main Riff End]

G|---------|
D|---------|
A|---------|
E|-5--3--5-|

[Chorus]

G|---------------|----------|---------------|---------|---------|-----------|
D|---------------|----------|---------------|---------|---------|-----------|
A|---------------|----------|---------------|---------|---------|-----------|
E|-0-0-0-0-0-0-0-|-5--3--5--|-0-0-0-0-0-0-0-|-5--3--5-|-5--3--5-|-5--3--5---|

G|---------------|-------------|-----------|
D|---------------|-------------|-----------|
A|---------------|-------------|-----------|
E|-5-5-5-5-5-5-5-|-5-5-5-5-5-5-|-5-5-5-5-5-|

[Main Riff] x6

G|---------|
D|---------|
A|---------|
E|-0-0-3-0-|

[Main Riff End]

G|---------|
D|---------|
A|---------|
E|-5--3--5-|

[Main Riff] x6

G|---------|
D|---------|
A|---------|
E|-0-0-3-0-|

[Main Riff End]

G|---------|
D|---------|
A|---------|
E|-5--3--5-|

[Main Riff] x6

G|---------|
D|---------|
A|---------|
E|-0-0-3-0-|

[Main Riff End]

G|---------|
D|---------|
A|---------|
E|-5--3--5-|

[Main Riff] x6

G|---------|
D|---------|
A|---------|
E|-0-0-3-0-|

[Main Riff End]

G|---------|
D|---------|
A|---------|
E|-5--3--5-|

[Main Riff] x6

G|---------|
D|---------|
A|---------|
E|-0-0-3-0-|

[Main Riff End]

G|---------|
D|---------|
A|---------|
E|-5--3--5-|

[Chorus]

G|---------------|----------|---------------|---------|---------|-----------|
D|---------------|----------|---------------|---------|---------|-----------|
A|---------------|----------|---------------|---------|---------|-----------|
E|-0-0-0-0-0-0-0-|-5--3--5--|-0-0-0-0-0-0-0-|-5--3--5-|-5--3--5-|-5--3--5---|

G|---------------|-------------|-----------|
D|---------------|-------------|-----------|
A|---------------|-------------|-----------|
E|-5-5-5-5-5-5-5-|-5-5-5-5-5-5-|-5-5-5-5-5-|

[Main Riff] x6

G|---------|
D|---------|
A|---------|
E|-0-0-3-0-|

[Main Riff End]

G|---------|
D|---------|
A|---------|
E|-5--3--5-|

[Main Riff] x6

G|---------|
D|---------|
A|---------|
E|-0-0-3-0-|

[Main Riff End]

G|---------|
D|---------|
A|---------|
E|-5--3--5-|


[Outro]

G|----------|----------|---------|--------|
D|----------|----------|---------|--------|
A|----------|----------|---------|--------|
E|-5--3--5--|-5--3--5--|-5--3--5-|-0------|





That's all
Enjoy and Rate
Suggest correction
Give kudos to tab author, rate the tab!
1 2 3 4 5
comments
print report bad tab
guest
You may want to rate the tab now too:
select rating
Wanna post a correction for this tab? Suggest correction