Oops, an error
Loading. Please wait.

Wardogs Bass Tab

by GBH
4 views 1 this week
no commentswrite comment
1 2 3 4 5
3 more votes to show rating
add to favorites
launch autoscroll
font size
0
reset
guitar tuner
Autoscroll
slow
fast
+/-
esc
set tempo
stop
Help us to improve Ultimate-Guitar.com Take our survey!
×
Author
Difficulty
novice
                             GBH - WAR DOGS

Tabbed by: Rottney (reconssuck)
E-mail: reconssuck@hotmail.de

Artist: GBH
Song: War Dogs
Album: City Baby Attacked by Rats (1982)





[Main Riff] x3

G|---------------|-----------|---------------|------------|
D|---------------|-----------|---------------|------------|
A|---------------|-----------|---------------|-------7-7--|
E|-9-9-9-9-9-9-9-|-7-7-7-5-5-|-9-9-9-9-9-9-9-|-7-7-7------|



[Chorus] x4

G|---------|-------------|-----------------|-----------------|
D|---------|-------------|-----------------|-----------------|
A|-7-7-7-7-|-------------|-----------------|-----------------|
E|---------|-9-9-9-7-7-7-|-6-6-6-6-6-6-6-6-|-6-6-6-6-6-6-6-6-|

[Main Riff] x2

G|---------------|-----------|---------------|------------|
D|---------------|-----------|---------------|------------|
A|---------------|-----------|---------------|-------7-7--|
E|-9-9-9-9-9-9-9-|-7-7-7-5-5-|-9-9-9-9-9-9-9-|-7-7-7------|

[Chorus] x4

G|---------|-------------|-----------------|-----------------|
D|---------|-------------|-----------------|-----------------|
A|-7-7-7-7-|-------------|-----------------|-----------------|
E|---------|-9-9-9-7-7-7-|-6-6-6-6-6-6-6-6-|-6-6-6-6-6-6-6-6-|

[Main Riff] x2

G|---------------|-----------|---------------|------------|
D|---------------|-----------|---------------|------------|
A|---------------|-----------|---------------|-------7-7--|
E|-9-9-9-9-9-9-9-|-7-7-7-5-5-|-9-9-9-9-9-9-9-|-7-7-7------|


[Chorus] x4

G|---------|-------------|-----------------|-----------------|
D|---------|-------------|-----------------|-----------------|
A|-7-7-7-7-|-------------|-----------------|-----------------|
E|---------|-9-9-9-7-7-7-|-6-6-6-6-6-6-6-6-|-6-6-6-6-6-6-6-6-|

[Main Riff] x4

G|---------------|-----------|---------------|------------|
D|---------------|-----------|---------------|------------|
A|---------------|-----------|---------------|-------7-7--|
E|-9-9-9-9-9-9-9-|-7-7-7-5-5-|-9-9-9-9-9-9-9-|-7-7-7------|

[Chorus] x4

G|---------|-------------|-----------------|-----------------|
D|---------|-------------|-----------------|-----------------|
A|-7-7-7-7-|-------------|-----------------|-----------------|
E|---------|-9-9-9-7-7-7-|-6-6-6-6-6-6-6-6-|-6-6-6-6-6-6-6-6-|

[End]

G|--------|----------|
D|--------|----------|
A|--------|---7------|
E|-9------|-0--------|




That's all
Enjoy and Rate
Suggest correction
Give kudos to tab author, rate the tab!
1 2 3 4 5
comments
print report bad tab
guest
You may want to rate the tab now too:
select rating
Wanna post a correction for this tab? Suggest correction