Oops, an error
Loading. Please wait.

Womb With A View Bass Tab

by GBH
1 view 1 this week
no commentswrite comment
1 2 3 4 5
3 more votes to show rating
add to favorites
launch autoscroll
font size
0
reset
guitar tuner
Autoscroll
slow
fast
+/-
esc
set tempo
stop
Help us to improve Ultimate-Guitar.com Take our survey!
×
Author
Difficulty
novice
                             GBH - WOMB WITH A VIEW

Tabbed by: Rottney (reconssuck)
E-mail: reconssuck@hotmail.de

Artist: GBH
Song: Womb With A View
Album: City Baby's Revenge (1984)



[Intro]

G|-----------|----------------|----------------|----------------|-------------------|
D|-----------|----------------|----------------|----------------|-------------------|
A|-3--5-5-5--|-3--0--2--3--5--|-3--0--2--3--5--|-3--0--2--3--5--|-3--0--2--3--5-----|
E|-----------|----------------|----------------|----------------|-------------------|

G|---------------------------------|---------------------------------|
D|---------------------------------|---------------------------------|
A|-2-2-2-2-2-2-2-2-2-2-2-2-2-2-2-2-|-3-3-3-3-3-3-3-3-3-3-3-3-3-3-3-3-|
E|---------------------------------|---------------------------------|


[Verse] x2

G|-------------|-------------|-------------|-------------|
D|-------------|-------------|-------------|-------------|
A|-2-2-2-2-2-2-|-0-0-0-0-0-0-|-3-3-3-3-3-3-|-------------|
E|-------------|-------------|-------------|-3-3-3-3-3-3-|

G|-------------|-------------|-------------|-------------|
D|-------------|-------------|-------------|-------------|
A|-2-2-2-2-2-2-|-0-0-0-0-0-0-|-5-5-5-5-5-5-|-5-5-5-5-5-5-|
E|-------------|-------------|-------------|-------------|


[Chorus] x2

G|----------|---------------|---------|---------------|
D|----------|---------------|---------|---------------|
A|-----3--5-|---------------|-3-3-3-2-|-5-5-5-5-5-5-5-|
E|-3-3------|-5-5-5-5-5-5-5-|---------|---------------|

[Chorus End]

G|-------------|-------------|-------------|--------------------|
D|-------------|-------------|-------------|--------------------|
A|-5-5-5-5-5-3-|-5-5-5-5-5-3-|-5-5-5-5-5-3-|-5-5-5-5-5-5-5-5-5--|
E|-------------|-------------|-------------|--------------------|

[Verse] x2

G|-------------|-------------|-------------|-------------|
D|-------------|-------------|-------------|-------------|
A|-2-2-2-2-2-2-|-0-0-0-0-0-0-|-3-3-3-3-3-3-|-------------|
E|-------------|-------------|-------------|-3-3-3-3-3-3-|

G|-------------|-------------|-------------|-------------|
D|-------------|-------------|-------------|-------------|
A|-2-2-2-2-2-2-|-0-0-0-0-0-0-|-5-5-5-5-5-5-|-5-5-5-5-5-5-|
E|-------------|-------------|-------------|-------------|

[Chorus] 

G|----------|---------------|---------|---------------|
D|----------|---------------|---------|---------------|
A|-----3--5-|---------------|-3-3-3-2-|-5-5-5-5-5-5-5-|
E|-3-3------|-5-5-5-5-5-5-5-|---------|---------------|

[Chorus End]

G|-------------|-------------|-------------|--------------------|
D|-------------|-------------|-------------|--------------------|
A|-5-5-5-5-5-3-|-5-5-5-5-5-3-|-5-5-5-5-5-3-|-5-5-5-5-5-5-5-5-5--|
E|-------------|-------------|-------------|--------------------|

[Bridge] x7


G|-------------|-----------------|
D|-------------|-----------------|
A|-2-2-2-2-2-2-|-2-2-2-2-2-2-2-2-|
E|-------------|-----------------|


[Verse] x2

G|-------------|-------------|-------------|-------------|
D|-------------|-------------|-------------|-------------|
A|-2-2-2-2-2-2-|-0-0-0-0-0-0-|-3-3-3-3-3-3-|-------------|
E|-------------|-------------|-------------|-3-3-3-3-3-3-|

G|-------------|-------------|-------------|-------------|
D|-------------|-------------|-------------|-------------|
A|-2-2-2-2-2-2-|-0-0-0-0-0-0-|-5-5-5-5-5-5-|-5-5-5-5-5-5-|
E|-------------|-------------|-------------|-------------|

[Chorus] 

G|----------|---------------|---------|---------------|
D|----------|---------------|---------|---------------|
A|-----3--5-|---------------|-3-3-3-2-|-5-5-5-5-5-5-5-|
E|-3-3------|-5-5-5-5-5-5-5-|---------|---------------|

[Chorus End]

G|-------------|-------------|-------------|--------------------|
D|-------------|-------------|-------------|--------------------|
A|-5-5-5-5-5-3-|-5-5-5-5-5-3-|-5-5-5-5-5-3-|-5-5-5-5-5-5-5-5-5--|
E|-------------|-------------|-------------|--------------------|


[Bridge] x7


G|-------------|-----------------|
D|-------------|-----------------|
A|-2-2-2-2-2-2-|-2-2-2-2-2-2-2-2-|
E|-------------|-----------------|


[Outro] x7

G|-------|
D|-------|
A|-2--2--|
E|-------|

(song fades out)




That's all
Enjoy and Rate


Suggest correction
Give kudos to tab author, rate the tab!
1 2 3 4 5
comments
print report bad tab
guest
You may want to rate the tab now too:
select rating
Wanna post a correction for this tab? Suggest correction