Oops, an error
Loading. Please wait.

Bassically bass

4,086 views 3 this week
no commentswrite comment
1 2 3 4 5
x 7
add to favorites
×
Save as Personal and add changes to this tab that will be seen only by you. Learn more ›
×
You can save this tab as Personal to edit and correct it or add notes. All changes will be seen only by you. Learn more »
launch autoscroll
font size
0
reset
guitar tuner
edit
Autoscroll
slow
fast
+/-
esc
set tempo
stop
-------------------------------------------------------------------------------
                        Bassically - Geezer Butler
-------------------------------------------------------------------------------

Tabbed By : Veronica
e-mail: lalaveronicaaa@yahoo.com

Tuning: Standard

In case you were wondering, Bassically is the bass solo played at the beginning of the
NIB by Black Sabbath. This might not be exactly how Geezer plays it on the album, but
never plays his solos the same way twice. Geezer uses wah and distortion on the album, 
but it sounds alright without. Also, listen to the song when you're learning to play it for
rhythm. Enjoy.



G|-------------------------------------------------------7h9-9-7---7-|
D|-----5---5h7--7b8b7--5h7p5---------------5---5h7/9-7h9---------9---|
A|-5h7---7-------------------7-7---7-5h7---7-------------------------|
E|-------------------------------------------------------------------|


G|-7h9p7---7-------------------------------------------------|
D|-------9---9p7-5--5h7p5-5---------5------------------------|
A|--------------------------7---5/7----7--7p5---------5h7-5--|
E|--------------------------------------------7-5-5h7--------|


G|-----------------------5-7--7h9p7---7--------------7---|
D|-----5---5-7h9-7-----5------------9---9p7-5--5h7p5---9-|
A|-5h7---7----------5h7----------------------------------|
E|-------------------------------------------------------|

                       +++++++++
G|---------------------777777777-|
D|-5b6--5----5-------------------|
A|---------7---7---5h7-----------|
E|-------------------------------|


G|----------------------------------|
D|-7b8--7--5h7p5---5----------------|
A|--------------7---7p5-5-----------|
E|-------------------------0--------|

===============================================================================
| /  slide up
| \  slide down
| h  hammer-on
| p  pull-off
| ~  vibrato
| +  harmonic
| x  Mute note
===============================================================================
Suggest correction
Creating personal tab
Creating personal tab
You can edit any tab online and save it as your Personal.

You can edit, replace or remove any tab part or add personal notes – all changes will be seen only by you.

Personal tabs can be accessed anytime from any device, even offline.
Learn more »
comments
print report bad tab
guest
You may want to rate the tab now too:
select rating
Wanna post a correction for this tab? Suggest correction