Oops, an error
Loading. Please wait.

Two Demons Eight Spirits tab

by Gehenna
10 views 1 this week
no commentswrite comment
1 2 3 4 5
3 more votes to show rating
add to favorites
×
Save as Personal and add changes to this tab that will be seen only by you. Learn more ›
×
You can save this tab as Personal to edit and correct it or add notes. All changes will be seen only by you. Learn more »
launch autoscroll
font size
0
reset
how to read this tab
guitar tuner
edit
Autoscroll
slow
fast
+/-
esc
set tempo
stop
Gehenna - Two demons eight spirits


Come forth demons Breathe through the walls that entomb you

[Riff 1]
e|---------|
B|---------|
G|---------|
D|---------| x8
A|-3-5-6-2-|
E|-1-3-4-0-|

The sword of my armour
My wind of of something darker
The hole of my grave dug deeper

[Riff 2]
e|---------------------------------|
B|---------------------------------|
G|---------------------------------|
D|---------------------------------| x16
A|-3-3-5-5-6-6-2-2-3-3-2-2-6-6-5-5-|
E|-1-1-3-3-4-4-0-0-1-1-0-0-4-4-3-3-|

The hymms of my funeral get louder
The evil tyrant I was I am
Laughter for lust I greed
The spells of my spirit
This world I now leave

My sword might be rusty
My mind may be old
But no one can change my faith
It has been foretold

[Riff 3]
e|---------------------------------|
B|---------------------------------|
G|---------------------------------|
D|-3-3-5-5-6-6-2-2-3-3-2-2-6-6-5-5-| x8
A|-1-1-3-3-4-4-0-0-1-1-0-0-4-4-3-3-|
E|---------------------------------|

I am a harbour for restless demonsouls
I have left nothing
Two demons eight Spirits

Later eight spirits will be left to me
Then I shall be for all eternity

[Coda] 
e|-------------|
B|-------------|
G|-------------|
D|-------------|
A|-5-5-5-3-6-2-|
E|-3-3-3-1-4-0-|
Suggest correction
Creating personal tab
Creating personal tab
You can edit any tab online and save it as your Personal.

You can edit, replace or remove any tab part or add personal notes – all changes will be seen only by you.

Personal tabs can be accessed anytime from any device, even offline.
Learn more »
Give kudos to tab author, rate the tab!
1 2 3 4 5
comments
print report bad tab
guest
You may want to rate the tab now too:
select rating
Wanna post a correction for this tab? Suggest correction