Oops, an error
Loading. Please wait.

Back Of My Hand Bass Tab

412 views 1 this week
no commentswrite comment
1 2 3 4 5
3 more votes to show rating
add to favorites
launch autoscroll
font size
0
reset
guitar tuner
Autoscroll
slow
fast
+/-
esc
set tempo
stop
Help us to improve Ultimate-Guitar.com Take our survey!
×
Author
Artist - Gemma Hayes
Song - Back of My Hand
Album - Night On My Side
Track - 3
Bassist - Karl Odlum

INTRO
G------------------------------------|
D------------------------------------|
A-2~~~~~~~~~~----5~~~~~~----4~~~~~~--|
E------------------------------------| X2

G---------------------------------|
D---------------------------------|
A-2-2-2-2-2-2-2-2-5-5-5-5-7-7-7-7-|
E---------------------------------|

G---------------------------------|
D---------------------------------|
A-2-2-2-2-2-2-2-2-5-5-5-5-4-4-4-4-|
E---------------------------------|

G---------------------------------|
D---------------------------------|
A-2-2-2-2-2-2-2-2-4-4-4-4-4-4-4-4-|
E---------------------------------|

G---------------------------------|
D---------------------------------|
A-5-5/7-7-7-7-7-7-7---------------|
E---------------------------------|

VERSE
G-----------------------------------|
D-----------------------------------|
A-22-222-222-22024-55-555--44-4-040-|
E-------------------------5---------|

G-----------------------------------|
D-----------------------------------|
A-22-222-222-22024-55-555--44-4-----|
E-------------------------5-----024-|

G-----------------------------------|
D-----------------------------------|
A-22-222-222-22024-55-555-4-4-4-----|
E-------------------------------024-|

G-----------------------------------|
D-----------------------------------|
A-22-222-222-222-2-55-555-544-44----|
E-------------------------------024-|

G-----------------------------------|
D-----------------------------------|
A-22-222-222-22024-55-555-4-4-4--40-|
E-------------------------------0---|

G-----------------------------------|
D-----------------------------------|
A-22-222-222-22024-5-5-5-5-4-4-4----|
E-------------------------------024-|

CHORUS
G-----------------------------------|
D-----------------------------------|
A-22-222-222-222-2-44-444-444-444-4-|
E-----------------------------------|

G-----------------------------------|
D-----------------------------------|
A-55-555-555-555-555-555-5/99-77-4/-|
E-----------------------------------|

G-----------------------------------|
D-----------------------------------|
A-22-222-222-22---44-444-444-444-4--|
E--------------024------------------|

G-----------------------------------|
D-----------------------------------|
A-55-555-555-555-555-555-555---020--|
E---------------------------024---0-|

G-----------------------------------|
D-----------------------------------|
A-22-222-222-22024-55-555--44-4-040-|
E-------------------------5---------|

REST

G-----------|
D-----------|
A-5/7-7-070-|
E-----------|

G-----------------------------------|
D-----------------------------------|
A-22-222-222-22-40-44-444-444-444-4-|
E--------------0--------------------|

G------------------------------------|
D------------------------------------|
A-55-555-555-555-5/9-9-7-7-5-54h5p40-|
E------------------------------------|

G-----------------------------------|
D-----------------------------------|
A-22-222-222-22-40-44-444-444-444-4-|
E--------------0--------------------|

G-----------------------------------|
D-----------------------------------|
A-55-555-555-555-555-555-555---020--|
E---------------------------024---0-|

G-----------------------------------|
D-----------------------------------|
A-22-222-222-22-40-22-222-222-22-40-|
E--------------0----------------0---| x3

Fade out
Suggest correction
Give kudos to tab author, rate the tab!
1 2 3 4 5
comments
print report bad tab
guest
You may want to rate the tab now too:
select rating
Wanna post a correction for this tab? Suggest correction