Oops, an error
Loading. Please wait.

Duke Of Earl Tab

version 1
version 1

Whole song

Video

5,285 views 1 this week
no commentswrite comment
1 2 3 4 5
accurate
x 3
add to favorites
launch autoscroll
font size
0
reset
how to read this tab
guitar tuner
Autoscroll
slow
fast
+/-
esc
set tempo
stop
Help us to improve Ultimate-Guitar.com Take our survey!
×
Author
Difficulty
novice
                          Duke Of Earl

  e|--------------------------------------------------------------|
  b|--------------------------------------------------------------|
  g|--9-----9-----9-----9----8----6-----6-----6----6-----4-----2--|
  d|--9-----9-----9-----9----8----6-----6-----6----6-----4-----2--|
  a|--7-----7-----7-----7----6----4-----4-----4----4-----2-----0--|
  e|--------------------------------------------------------------|
     Duke  Duke  Duke  Duke  of  Earl  Duke  Duke  Duke  of  Earl


  e|-----------------------------------------------------------------------|
  b|-----------------------------------------------------------------------|
  g|--2----2-----2----6----4-----4-----4-----4------8----------------------|
  d|--2----2-----2----6----4-----4-----4-----4------8----------------------|
  a|--0----0-----0----4----2-----2-----2-----2------6----------------------|
  e|-----------------------------------------------------------------------|
    Duke  Duke  Duke  of  Earl  Duke  Duke  Duke   0f -Then repeat from the
                                                       beginning-


           **This is my first tab so it might be wrong, but it sounds good
             enough to me.**
Suggest correction
Give kudos to tab author, rate the tab!
1 2 3 4 5
comments
print report bad tab
guest
You may want to rate the tab now too:
select rating
Please do not post tabs as comments. Select "correction" instead!