Oops, an error
Loading. Please wait.

No Other bass

184 views 1 this week
no commentswrite comment
1 2 3 4 5
3 more votes to show rating
add to favorites
×
Save as Personal and add changes to this tab that will be seen only by you. Learn more ›
×
You can save this tab as Personal to edit and correct it or add notes. All changes will be seen only by you. Learn more »
launch autoscroll
font size
0
reset
guitar tuner
edit
Autoscroll
slow
fast
+/-
esc
set tempo
stop
Author
Difficulty
No Other - Gene Clark


A lot of this is scattershot so listen to the song to get the structure.

The song is in F#m for the most part, so you can use this to solo in the solo sections. The verse and bridge 
sections have chords outside this key so you may have to adapt accordingly.

On the intro just hang around on the second fret on the E string and you can slide up to the 14th fret 
of the E string also(i.e F#)

Verse
G|------------------------------------------------2-------------------|
D|----7-7----5--5-----------------------2---4--------4-----4--6-------|
A|---------------------5-5-9-7-----4----------------------------------| repeat until ....
E|--------------------------------------------------------------------|


Bridge

D=12th fret on d string
B=14th fret on a string

D
When the stream of changing days
B
Turns around in so many ways
D                                    *
Turn the pilot of the mind must find the right direction


G|---------------2-------|
D|-------2---4-------4---|
A|---4-------------------|  play this riff at the *
E|-----------------------|


Solo

For the solo just do a constant bass line on the second fret of the e string but you can 
make fills out of any of these notes.


G|---------------------------------------------------2---4---6-------|
D|-----------------------------------0---2---4---6-------------------|
A|-------------------5---4---2---0-----------------------------------|
E|---0---2---4---5---------------------------------------------------|

At the end of the solo come out of it with this little fill


G|---------------|
D|---------------|
A|---------------| 
E|---2---4---5---|

or

G|---------------|
D|---4---6---7---|
A|---------------|
E|---------------|

now the structure

INTRO
VERSE(x8)
BRIDGE
SOLO
VERSE(x4)
BRIDGE
SOLO
OUTRO (SAME AS VERSE)

            
            
Suggest correction
Creating personal tab
Creating personal tab
You can edit any tab online and save it as your Personal.

You can edit, replace or remove any tab part or add personal notes – all changes will be seen only by you.

Personal tabs can be accessed anytime from any device, even offline.
Learn more »
Give kudos to tab author, rate the tab!
1 2 3 4 5
comments
print report bad tab
guest
You may want to rate the tab now too:
select rating
Wanna post a correction for this tab? Suggest correction