Oops, an error
Loading. Please wait.

The Virgin bass

64 views 1 this week
no commentswrite comment
1 2 3 4 5
3 more votes to show rating
add to favorites
×
Save as Personal and add changes to this tab that will be seen only by you. Learn more ›
×
You can save this tab as Personal to edit and correct it or add notes. All changes will be seen only by you. Learn more »
launch autoscroll
font size
0
reset
guitar tuner
edit
Autoscroll
slow
fast
+/-
esc
set tempo
stop
Author
Difficulty
[Intro]

G|------------------------4-------------------------------1-------|
D|------------4-/-6---------------------------1-/-2---------------|
A|2-------------------------------4-------------------------------|
E|----------------------------------------------------------------|

G|------------------------4---\---------------------------4-------|
D|2-----------4-/-6---------------------------4-/-6---------------|
A|--------------------------------2-------------------------------|
E|----------------------------------------------------------------|

G|------------------------4-------------------------------1-------|
D|------------4-/-6---------------------------1-/-2---------------|
A|2-------------------------------4-------------------------------|
E|----------------------------------------------------------------|

G|--------------------------------------------------------4-------|
D|2-----------2---1-------4-------------------4-/-6---------------|
A|--------------------------------2-------------------------------|
E|----------------------------------------------------------------|

G|------------------------4-------|
D|------------4-/-6---------------|
A|2-------------------------------|
E|--------------------------------|


[Verse]

0:20

G|------------------------4-------------------------------1-------|.
D|------------4-/-6---------------------------1-/-2---------------|.
A|2-------------------------------4-------------------------------|.
E|----------------------------------------------------------------|.
                                                                   . x2
G|------------------------4-------------------------------4-------|.
D|2-----------4-/-6---------------------------4-/-6---------------|.
A|--------------------------------2-------------------------------|.
E|----------------------------------------------------------------|.

0:37

G|------------------------1---------------------------------------|
D|----------------1---------------4-----------4-----------4-------|
A|2-----------2-----------------------------------4---------------|
E|----------------------------------------------------------------|

G|----------------------------------------------------------------|
D|--------------------------------2-----------2---2-------2---4---|
A|4-----------4---4-------2---------------------------------------|
E|----------------------------------------------------------------|

G|------------------------4-------------------------------1-------|
D|------------4-/-6---------------------------1-/-2---------------|
A|2-------------------------------4-------------------------------|
E|----------------------------------------------------------------|

G|--------------------------------------------------------4-------|
D|2-----------2---1-------4-------------------4-/-6---------------|
A|--------------------------------2-------------------------------|
E|----------------------------------------------------------------|

G|------------------------4-------|
D|------------4-/-6---------------|
A|2-------------------------------|
E|--------------------------------|


[Verse 2]

0:55

G|------------------------4-------------------------------1-------|.
D|------------4-/-6---------------------------1-/-2---------------|.
A|2-------------------------------4-------------------------------|.
E|----------------------------------------------------------------|.
                                                                   . x2
G|------------------------4-------------------------------4-------|.
D|2-----------4-/-6---------------------------4-/-6---------------|.
A|--------------------------------2-------------------------------|.
E|----------------------------------------------------------------|.

1:12

G|------------------------1---------------------------------------|
D|----------------1---------------4-----------4-----------4-------|
A|2-----------2-----------------------------------4---------------|
E|----------------------------------------------------------------|

G|----------------------------------------------------------------|
D|--------------------------------2-----------2-----------2---4---|
A|4-----------4-----------4-----------------------2---------------|
E|----------------4-----------------------------------------------|

G|------------------------4-------------------------------1-------|
D|------------4-/-6---------------------------1-/-2---------------|
A|2-------------------------------4-------------------------------|
E|----------------------------------------------------------------|

G|--------------------------------------------------------4-------|
D|2-----------2---1-------4-------------------4-/-6---------------|
A|--------------------------------2-------------------------------|
E|----------------------------------------------------------------|

G|------------------------4-------|
D|------------4-/-6---------------|
A|2-------------------------------|
E|--------------------------------|


[Verse 3]

1:31

G|------------------------4-------------------------------1-------|
D|------------4-/-6---------------------------1-/-2---------------|
A|2-------------------------------4-------------------------------|
E|----------------------------------------------------------------|

G|------------------------4---\---------------------------4---\---|
D|2-----------4-/-6---------------------------4-/-6---------------|
A|--------------------------------2-------------------------------|
E|----------------------------------------------------------------|

G|------------------------4-------------------------------1-------|
D|------------4-/-6---------------------------1-/-2---------------|
A|2-------------------------------4-------------------------------|
E|----------------------------------------------------------------|

G|------------------------4---\---------------------------4-------|
D|2-----------4-/-6---------------------------4-/-6---------------|
A|--------------------------------2-------------------------------|
E|----------------------------------------------------------------|

1:48

G|------------------------1---------------------------------------|
D|----------------1---------------4-----------4-----------4-------|
A|2-----------2-----------------------------------4---------------|
E|----------------------------------------------------------------|

G|----------------------------------------------------------------|
D|--------------------------------2-----------2---2-------2---4---|
A|4-----------4-----------4---2-----------------------2-----------|
E|----------------4-----------------------------------------------|

G|------------------------4-------------------------------1-------|
D|------------4-/-6---------------------------1-/-2---------------|
A|2-------------------------------4-------------------------------|
E|----------------------------------------------------------------|

G|--------------------------------------------------------4---\---|
D|2-----------2---1-------4-------------------4-/-6---------------|
A|--------------------------------2-------------------------------|
E|----------------------------------------------------------------|

G|------------------------4---\---|
D|------------4-/-6---------------|
A|2-------------------------------|
E|--------------------------------|


[Solo]

2:07

G|------------------------4-------------------------------1-------|
D|------------4-/-6---------------------------1-/-2---------------|
A|2-------------------------------4-------------------------------|
E|----------------------------------------------------------------|

G|------------------------4---\---------------------------4---\---|
D|2-----------4-/-6---------------------------4-/-6---------------|
A|--------------------------------2-------------------------------|
E|----------------------------------------------------------------|

G|------------------------4-------------------------------1-------|
D|------------4-/-6---------------------------1-/-2---------------|
A|2-------------------------------4-------------------------------|
E|----------------------------------------------------------------|

G|------------------------4---\---------------------------4-------|
D|------------4-/-6---------------------------4-/-6---------------|
A|2-------------------------------2-------------------------------|
E|----------------------------------------------------------------|

G|------------------------4---\---|
D|------------4-/-6---------------|
A|2-------------------------------|
E|--------------------------------|


[Verse 4]

2:26

G|------------------------4-------------------------------1-------|.
D|------------4-/-6---------------------------1-/-2---------------|.
A|2-------------------------------4-------------------------------|.
E|----------------------------------------------------------------|.
                                                                   . x2
G|------------------------4---\---------------------------4---\---|.
D|2-----------4-/-6---------------------------4-/-6---------------|.
A|--------------------------------2-------------------------------|.
E|----------------------------------------------------------------|.

2:43

G|------------------------4---------------------------------------|
D|------------4-/-6-----------6---4-----------------------4-------|
A|2-------------------------------------------4---------------6---|
E|----------------------------------------------------------------|

G|----------------------------------------------------------------|
D|------------------------------------------------------------4---|
A|4-----------4---4-------6-------7-----------7---7-------7-------|
E|----------------------------------------------------------------|

G|--------------------------------------------------------1-------|
D|------------------------4-------------------1-/-2---------------|
A|2-----------4---6---------------4-------------------------------|
E|----------------------------------------------------------------|

G|------------------------4-------------------------------4-------|
D|------------4-/-6---------------------------4-/-6---------------|
A|2-------------------------------2-------------------------------|
E|----------------------------------------------------------------|

G|------------------------4---\---|
D|------------4-/-6---------------|
A|2-------------------------------|
E|--------------------------------|


[Solo Outro]

3:01

G|------------------------4-------------------------------1-------|
D|------------4-/-6---------------------------1-/-2---------------|
A|2-------------------------------4-------------------------------|
E|----------------------------------------------------------------|

G|------------------------4---\---------------------------4---\---|
D|2-----------4-/-6---------------------------4-/-6---------------|
A|--------------------------------2-------------------------------|
E|----------------------------------------------------------------|

G|------------------------4-------------------------------1-------|
D|------------4-/-6---------------------------1-/-2---------------|
A|2-------------------------------4-------------------------------|
E|----------------------------------------------------------------|

G|------------------------4---\---------------------------4---\---|
D|2-----------4-/-6---------------------------4-/-6---------------|
A|--------------------------------2-------------------------------|
E|----------------------------------------------------------------|

G|------------------------4---\---------------------------4---\---|
D|------------4-/-6---------------------------4-/-6---------------| until fadeout.
A|2-------------------------------2-------------------------------|
E|----------------------------------------------------------------|



************************************

| /  Slide up
| \  Slide down

************************************


Suggest correction
Creating personal tab
Creating personal tab
You can edit any tab online and save it as your Personal.

You can edit, replace or remove any tab part or add personal notes – all changes will be seen only by you.

Personal tabs can be accessed anytime from any device, even offline.
Learn more »
Give kudos to tab author, rate the tab!
1 2 3 4 5
comments
print report bad tab
guest
You may want to rate the tab now too:
select rating
Wanna post a correction for this tab? Suggest correction