Oops, an error
Loading. Please wait.

White Light bass

73 views 1 this week
no commentswrite comment
1 2 3 4 5
3 more votes to show rating
add to favorites
×
Save as Personal and add changes to this tab that will be seen only by you. Learn more ›
×
You can save this tab as Personal to edit and correct it or add notes. All changes will be seen only by you. Learn more »
launch autoscroll
font size
0
reset
guitar tuner
edit
Autoscroll
slow
fast
+/-
esc
set tempo
stop
Author
Difficulty
Tabbed by: 6METAL6BASSIST6
E-mail: petergriffinav@gmail.com

Tuning: EADG

G|----------------------------------------------------------------|
D|2---------------2-----------2-----------2---3---4-----4---------|
A|--------2---------------2-------0-----------------------4---2---|
E|----------------------------------------------------------------|

G|----------------------------------------------------------------|
D|--------2---3---4-----4---------2---------------2-----------1---|
A|0-----------------------2---------------2-----2-----2---4-------|
E|----------------------------------------------------------------|

0:11

G|----------------------------1---2-------1-----------------------|
D|2---------------2-------4-----------------------4-----4---------|
A|--------2-----------------------------------------------4---2---|
E|----------------------------------------------------------------|

G|----------------------------------------------------------------|
D|--------2---3---4---------------2---------------2-2---------1---|
A|0-----------------------2---------------2-----------2---4-------|
E|----------------------------------------------------------------|

G|----------------------------1---2-------1-----------------------|
D|2---------------2-------4-----------------------4-----4---------|
A|--------2-----------------------------------------------4---2---|
E|----------------------------------------------------------------|

G|------------------------------------------------------------1---|
D|--------2-------4---------------2---------------2-------4-------|
A|0-----------------------2---4-----------2-----------------------|
E|----------------------------------------------------------------|

0:35

G|2-------1---------------------------------------------------1---|
D|----------------4-----4---------2---------------2-------4-------|
A|------------------------2---4-----------2-------------2---------|
E|----------------------------------------------------------------|

G|2-------1-------------------------------------------------------|
D|----------------4-----4---------2---------------2-2---------1---|
A|------------------------2---4-----------2-----------2---4-------|
E|----------------------------------------------------------------|

G|----------------------------1---2-------1-----------------------|
D|2---------------2-------4-----------------------4-----4---------|
A|--------2-----------------------------------------------4---2---|
E|----------------------------------------------------------------|

G|----------------------------------------------------------------|
D|--------2---3---4-----4---------2---------------2-2---------1---|
A|0-----------------------2---4-----------2-----------2---4-------|
E|----------------------------------------------------------------|

0:59

G|----------------------------------------------------------------|
D|2---------------2-----2-----2-----------2---3---4-----4---------|
A|--------2-----2---------2-------0-----------------------4---2---|
E|----------------------------------------------------------------|

G|----------------------------------------------------------------|
D|--------2---3---4-----4---------2-----2---------2-2---------1---|
A|0-----------------------2---4-----------2-----------2---4-------|
E|----------------------------------------------------------------|

G|----------------------------------------------------------------|
D|2---------------2-----------------------2---3---4-----4---------|
A|--------2---------------2---1---0-----------------------4---2---|
E|----------------------------------------------------------------|

G|----------------------------------------------------------------|
D|--------2---3---4-----4---------2---------------2-----2-----2---|
A|0-----------------------2---4-----------2---------------2-------|
E|----------------------------------------------------------------|

1:22

G|--------1---------------------------------------------------1---|
D|----------------4---------------2---------------2-------4-------|
A|0-----------------------2---4-----------2-----2-----------------|
E|----------------------------------------------------------------|

G|2-------1-------------------------------------------------------|
D|----------------4-----4---------2---------------2-2---------1---|
A|------------------------2---4-----------2-----------2---4-------|
E|----------------------------------------------------------------|

G|----------------------------------------------------------------|
D|2---------------2-----------------------2---3---4-----4---------|
A|--------2---------------2---1---0-----------------------4---2---|
E|----------------------------------------------------------------|

G|----------------------------------------------------------------|
D|--------2-------4---------------2-----2---------2-2---------1---|
A|0-----------0-----------2---2-----------2-----------2---4-------|
E|----------------------------------------------------------------|

1:46

G|----------------------------------------------------------------|
D|2---------------2-----2-----2-----------2---3---4-----4---------|
A|--------2---------------2-------0-----------------------4---2---|
E|----------------------------------------------------------------|

G|----------------------------------------------------------------|
D|--------2-----3-4-----4---------2-----2---------2-2---------1---|
A|0-----------------------2---4-----------2-----------2---4-------|
E|----------------------------------------------------------------|

G|----------------------------------------------------------------|
D|2---------------2-----2-----2-----------2---3---4-----4---------|
A|--------2---------------2-------0-----------------------4---2---|
E|----------------------------------------------------------------|

G|----------------------------------------------------------------|
D|--------2---3---4-----4---------2-----2---------2---0-----------|
A|0-----------------------2---4-----------2---------------4---2---|
E|----------------------------------------------------------------|

2:09

G|----------------------------------------------------------------|
D|--------2---3---4-----4---------2---------------2---0-----------|
A|0-----------------------2---4-----------2---------------4---2---|
E|----------------------------------------------------------------|

G|----------------------------------------------------------------|
D|--------2-----3-4---------------2-----2---------2-----------1---|
A|0-----------------------2---4-----------2-----------2---4-------|
E|----------------------------------------------------------------|

G|----------------------------------------------------------------|
D|2---------------------------------------2---3---4-----4---------|
A|--------2-----2-----------------------------------------4---2---|
E|----------------0-------2---5---5-------------------------------|

G|----------------------------------------------------------------|
D|--------2---3---4-----4---------2---------------2-----------1---|
A|0-----------------------2---4-----------2-----------2---4-------|
E|----------------------------------------------------------------|

2:33

G|----------------------------1---2-------1-----------------------|
D|2---------------2-------4-----------------------4-----4---------|
A|--------2-----------------------------------------------4---2---|
E|----------------------------------------------------------------|

G|----------------------------------------------------------------|
D|--------2-------4-----4---------2-----------------2---------1---|
A|0-----------0-----------4---2-----------2-----------2---4-------|
E|----------------------------------------------------------------|

G|----------------------------1---2-------1-----------------------|
D|2---------------2-------4-----------------------4-----4---------|
A|--------2-----------------------------------------------4---2---|
E|----------------------------------------------------------------|

G|------------------------------------------------------------1---|
D|--------2---3---4-------------------2-----------2---2---4-------|
A|0---------------------------------------2-----2-----------------|
E|------------------------2---2---0-------------------------------|

2:56

G|2-------1---------------------------------------------------1---|
D|----------------4-----4---------2---------------2---2---4-------|
A|------------------------2---------------2-----------------------|
E|----------------------------------------------------------------|

G|2-------1-------------------------------------------------------|
D|----------------4---------------2-----------------2---------1---|
A|------------------------2---------------2-----------2---4-------|
E|----------------------------------------------------------------|

G|----------------------------------------------------------------|
D|2---------------2-----------2-----------2---3---4-----4---------|
A|--------2---------------2-------0-----------------------4---2---|
E|----------------------------------------------------------------|

G|----------------------------------------------------------------|
D|--------2---3---4-----4---------2---------------2-----------1---|
A|0-----------------------2---4-----------2-----------2---4-------|
E|----------------------------------------------------------------|

3:20

G|----------------------------1---2-------1-----------------------|
D|2---------------2-------4-----------------------4-----4---------|
A|--------2-----------------------------------------------4---2---|
E|----------------------------------------------------------------|

G|----------------------------------------------------------------|
D|--------2---3---4-----4---------2-------------------2---2-------|
A|0-----------------------2-------------------------2-------------|
E|----------------------------------------------------------------|

            
            
Suggest correction
Creating personal tab
Creating personal tab
You can edit any tab online and save it as your Personal.

You can edit, replace or remove any tab part or add personal notes – all changes will be seen only by you.

Personal tabs can be accessed anytime from any device, even offline.
Learn more »
Give kudos to tab author, rate the tab!
1 2 3 4 5
comments
print report bad tab
guest
You may want to rate the tab now too:
select rating
Wanna post a correction for this tab? Suggest correction