Oops, an error
Loading. Please wait.

Break The Chain Tab

6,556 views 6 this week
no commentswrite comment
1 2 3 4 5
x 3
add to favorites
launch autoscroll
font size
0
reset
how to read this tab
guitar tuner
Autoscroll
slow
fast
+/-
esc
set tempo
stop
Help us to improve Ultimate-Guitar.com Take our survey!
×
Author
Difficulty
novice
Gene loves Jezebel - Break the Chain

Intro Riff 1

e|------------------------------------------------------------|
B|------------10--6----------8-5-5----------------------------|
G|----------9--------------7-------7h5------------------------|  2x
D|-----7h10----------7h5-5------------------------------------|
A|------------------------------------------------------------|
E|------------------------------------------------------------|

Intro Riff 2
e|-------------8---------3---------0---------------------------------8h10h8--|
B|----10-8-10------5-3-5-----3-1-3---1----------5-5h3h5---8-10h8h10----------|
G|-------------------------------------0--7h5h7------------------------------|2x          
D|---------------------------------------------------------------------------|
A|---------------------------------------------------------------------------|
E|---------------------------------------------------------------------------|


Verse Chords

A-F-G-Em

It's just an illusion, a trick, a trick of the light
what you now see is really out of sight
It's dark, it's evil, possessive and kind
Something that you give me keeps me alive


Pre-chorus      Riff 3 Chords A-F-G-Em

e|------------------------------------------------------------|
B|-------10---6-------8-5-5-5---------------------------------|
G|----------9-----------------7h5-----------------------------|  
D|-----7------------5-----------------------------------------|
A|------------------------------------------------------------|
E|------------------------------------------------------------|

Both ends burning, burning so bright tonight
And my world keeps turning, turning inside out

Chorus          Riff 1

A-F-G-Em

And I can't break the chain
I've gotta break the chain
I'm trying to break the chain
God help me break the chain


Repeat Riff 2


Verse 2

I'm winning, I'm losing before I start
I pull myself together as I fall apart
I'm wise, so foolish perceptive and blind
Something that kills me keeps me alive

Pre-chorus      Riff 3

Both ends burning, burning so bright tonight
And my world keeps turning, turning inside out

Chorus          Riff 1


And I can't break the chain
I've gotta break the chain
I'm trying to break the chain
God help me break the chain

Repeat Riff1

Solo Riff 4


e|-------------8---------3---------0---------------------------------8-10^----------|
B|----10-8-10------5-3-5-----3-1-3---1----------5-5h3h5---8-10h8h10-----------------|
G|-------------------------------------0--7h5h7-------------------------------------|           
D|----------------------------------------------------------------------------------|
A|----------------------------------------------------------------------------------|
E|----------------------------------------------------------------------------------|

e|-------------8---------3---------0-------------------------------8-10-12-15-17^---|
B|----10-8-10------5-3-5-----3-1-3---1----------5-5h3h5---8-10-12-------------------|
G|-------------------------------------0--7h5h7-------------------------------------|           
D|----------------------------------------------------------------------------------|
A|----------------------------------------------------------------------------------|
E|----------------------------------------------------------------------------------|



Verse 3

There's no rhyme no reason
to what I do
I just live my life before I lose
I give, I take, I throw it all away
I Pick myself up and I start again

Pre-chorus      Riff 3

Both ends burning, burning so bright tonight
And my world keeps burning, turning upside out

Chorus          Riff 1

And I can't break the chain
God help me break the chain
I've gotta break the chain
please help me break the chain. . . .

Repeat Riff 2 till the end


This is my first tab so any comments,suggestions or improvements would be very welcome.
Please rate it
Thanks :)

http://www.genelovesjezebel.com/
 
Suggest correction
Give kudos to tab author, rate the tab!
1 2 3 4 5
comments
print report bad tab
guest
You may want to rate the tab now too:
select rating
Wanna post a correction for this tab? Suggest correction