Oops, an error
Loading. Please wait.

Princess In Rags bass

19 views 3 this week
no commentswrite comment
1 2 3 4 5
3 more votes to show rating
add to favorites
×
Save as Personal and add changes to this tab that will be seen only by you. Learn more ›
×
You can save this tab as Personal to edit and correct it or add notes. All changes will be seen only by you. Learn more »
launch autoscroll
font size
0
reset
guitar tuner
edit
Autoscroll
slow
fast
+/-
esc
set tempo
stop
Author
Princess In Rags
1965 single release by American artist Gene Pitney.  Peaked at #9
UK charts. Tab by bass50611. Bass line as I see it from original.
What a great sixties sound. They don’t make them like they used to!
Symbol ‘.’ Are Pauses

Intro:
G|--------------|-----------------|
D|-GUITAR START-|-----------------|
A|--------------|-3--3-3---3--3-3-|
E|--------------|---------3-------|

Verse 1:
G|------------------------------------------------------------------|
D|----------------------------3--3-3---3--3-3---4-5--5-5---4-3--3-3-|
A|--3--3-3---3--3-3---3--3-3----------------------------------------|
E|-3--------3--------3----------------------------------------------|

G|-------------------------|
D|-3--3-3------------------|
A|---------3--3-3---3--3-3-|
E|-----------------3-------|

Chorus:
G|---------------------------------------------------------------|
D|-------------------3--3-3--2--0--0-0--2-3-5--5-5---5--5-5--3-2-|
A|--3--3-3---3--3-3----------------------------------------------|
E|-3--------3----------------------------------------------------|

G|------------------|
D|------------------|
A|-3--3-3--1-3--3-3-|
E|--------3---------|

Verse 2:
G|--------------------------------------------------------------------|
D|------------------------------3--3-3---3--3-3---4-5--5-5---4-3--3-3-|
A|--1-3--3-3---3--3-3---3--3-3----------------------------------------|
E|-3----------3--------3----------------------------------------------|

G|--------------------------|
D|-3--3-3-------------------|
A|---------3--3-3--1-3--3-3-|
E|----------------3---------|

Chorus:
G|---------------------------------------------------------------------|
D|---------------------3--3-3--2--0--0-0--2-3-5--5-5---3-2-5--5-5--3-2-|
A|--1-3--3-3---3--3-3--------------------------------------------------|
E|-3----------3--------------------------------------------------------|

              (Break)
G|--------------|
D|--------------|
A|-3--3-3---1-3-|
E|---------3----|

Bridge:                                     ‘.’        ‘.’
G|-----------------------------------------------------------------|
D|-3--3-3---3--3-3------------------------------------------5--5-5-|
A|------------------3--3-3---3--3-3----1--3--5----1--3--5----------|
E|-----------------------------------------------------------------|

G|-------------------|
D|-5-5--3-3--2-2-----|
A|---------------5-5-|
E|-------------------|

Verse 3:
G|-----------------------------------------------------------------|
D|---------------------------3--3-3---3--3-3---4-5--5-5---4-3--3-3-|
A|-3--3-3---3--3-3---3--3-3----------------------------------------|
E|---------3--------3----------------------------------------------|

G|-------------------------|
D|-3--3-3------------------|
A|---------3--3-3---3--3-3-|
E|-----------------3-------|

Chorus:
G|-------------------------------------------------------------------|
D|-------------------3--3-3--2--0--0-0--2-3-5--5-5---3-2-5--5-5--3-2-|
A|--3--3-3---3--3-3--------------------------------------------------|
E|-3--------3--------------------------------------------------------|

G|------------------------|
D|------------------------|
A|-3--1-3---1-3---1-3---1-|
E|---3-----3-----3-----3--|

Outro:
G|------------------------------------------------------------------|
D|------------------3--3-3--2--0--0-0--2-3-5--5-5---3-2-5--5-5--3-2-|
A|-3--3-3---3--3-3--------------------------------------------------|
E|---------3--------------------------------------------------------|

                    (Song Fades Out)
G|------------------------|
D|------------------------|
A|-3--1-3---1-3---1-3---1-|
E|---3-----3-----3-----3--|

Symbol ‘.’ Are Pauses

            
            
Suggest correction
Creating personal tab
Creating personal tab
You can edit any tab online and save it as your Personal.

You can edit, replace or remove any tab part or add personal notes – all changes will be seen only by you.

Personal tabs can be accessed anytime from any device, even offline.
Learn more »
Give kudos to tab author, rate the tab!
1 2 3 4 5
comments
print report bad tab
guest
You may want to rate the tab now too:
select rating
Wanna post a correction for this tab? Suggest correction