Oops, an error
Loading. Please wait.

Lotta Lovin bass

version 1
version 1

Whole song

Interactive

61 views 1 this week
no commentswrite comment
1 2 3 4 5
3 more votes to show rating
add to favorites
×
Save as Personal and add changes to this tab that will be seen only by you. Learn more ›
×
You can save this tab as Personal to edit and correct it or add notes. All changes will be seen only by you. Learn more »
launch autoscroll
font size
0
reset
guitar tuner
edit
Autoscroll
slow
fast
+/-
esc
set tempo
stop
Author
Difficulty
LOTTA LOVIN' (Bassline)

As recorded by Gene Vincent & His Blue Caps
(From the 1958 Album MEMORIAL ALBUM)

Words and Music by Bernice Bedwell & Tommy Bedwell 

Transcribed by Slowhand


Gtr I (E A D G) - 'Bobby Lee Jones - Double Bass'


 Intro
  Q=168(8=s8)
 4/4
  Gtr I
  W          Q.   E Q  Q      Q.   E Q  Q    Q.   E Q  Q
|----------|--------------||---------------|---------------||
|----------|-5---------4--||o-5---------4--|-5---------4--o||
|----------|------5-5-----||o------5-5-----|------5-5-----o||
|----------|--------------||---------------|---------------||


 1st Verse
  Q.   E Q  Q    Q.   E Q  Q    Q.   E Q  Q    Q.   E Q  Q
|--------------|--------------|--------------|--------------|
|-5---------4--|-5---------4--|-5---------4--|-5---------4--|
|------5-5-----|------5-5-----|------5-5-----|------5-5-----|
|--------------|--------------|--------------|--------------|


  Q.   E Q  Q    Q.   E Q  Q    E E Q  H      W
|--------------|--------------|-------------|------||
|-5---------4--|-5----5-5-----|-------------|------||
|------5-5-----|-----------3--|-5-----------|------||
|--------------|--------------|-------------|------||


 2nd Verse
  Q.   E Q  Q    Q.   E Q  Q    Q.   E Q  Q    Q.   E Q  Q
|--------------|--------------|--------------|--------------|
|-5---------4--|-5---------4--|-5---------4--|-5---------4--|
|------5-5-----|------5-5-----|------5-5-----|------5-5-----|
|--------------|--------------|--------------|--------------|


  Q.   E Q  Q    Q.   E Q  Q    E E Q  H      W
|--------------|--------------|-------------|------||
|-5---------4--|-5----5-5-----|-------------|------||
|------5-5-----|-----------3--|-5-----------|------||
|--------------|--------------|-------------|------||


   Bridge
    Q.   E +Q   Q    Q.   E +Q   Q    Q.   E +Q   Q    Q.   E +Q   Q
||-----------------|----------------|----------------|-----------------|
||o------5-(5)--5--|------5-(5)--5--|-5-----------4--|-5-----------5---|
||o-3--------------|-3--------------|------5-(5)-----|------5-(5)------|
||-----------------|----------------|----------------|-----------------|


  Q.   E +Q   Q    Q  Q  Q  Q    E E Q  H      W
|----------------|-------------|-------------|------||
|-7-----------6--|----7--7-----|-------------|------||
|------7-(7)-----|-------------|-5-----------|------||
|----------------|-------------|-------------|------||


 3rd - 5th Verses
  $
  Q.   E Q  Q    Q.   E Q  Q    Q.   E Q  Q    Q.   E Q  Q
|--------------|--------------|--------------|--------------|
|-5---------4--|-5---------4--|-5---------4--|-5---------4--|
|------5-5-----|------5-5-----|------5-5-----|------5-5-----|
|--------------|--------------|--------------|--------------|


                                  To Coda
  Q.   E Q  Q    Q.   E Q  Q    E E Q  H      W
|--------------|--------------|-------------|------||
|-5---------4--|-5----5-5-----|-------------|------||
|------5-5-----|-----------3--|-5-----------|------||
|--------------|--------------|-------------|------||


 Guitar Solo 1
  1.
  Q  Q  Q  Q    Q  Q  Q  Q    Q  Q  Q  Q    Q  Q  Q  Q
|-------------|-------------|-------------|-------------|
|-------0--2--|-3--2--0-----|-------0--2--|-3--2--0-----|
|----2--------|----------2--|----2--------|----------2--|
|-3-----------|-------------|-3-----------|-------------|


  Q  Q  Q  Q    Q  Q  Q  Q    Q  Q  Q  Q    Q  Q  H
|-------------|-------0--2--|-------2--4--|-------------||
|-------0--2--|----2--------|-0--4--------|-5--5-------o||
|----2--------|-3-----------|-------------|------------o||
|-3-----------|-------------|-------------|-------------||


 Guitar Solo 2
  2.
  Q  Q  Q  Q    Q  Q  Q  Q    Q  Q  Q  Q    Q  Q  Q  Q
|-------------|-------------|-------------|-------------|
|-------0--2--|-3--2--0-----|-------0--2--|-3--2--0-----|
|----2--------|----------2--|----2--------|----------2--|
|-3-----------|-------------|-3-----------|-------------|


                                          D.S. al Coda
  Q  Q  Q  Q    Q  Q  Q  Q    Q  Q  Q  Q    Q  Q  +H
|-------------|-------0--2--|-------2--4--|--------------||
|-------0--2--|----2--------|-0--4--------|-5--5--(5)----||
|----2--------|-3-----------|-------------|--------------||
|-3-----------|-------------|-------------|--------------||


              Outro
  &
  W            Q.   E Q  Q    Q.   E Q  Q
|----------||---------------|--------------|
|----------||o-5---------4--|--------------|
|----------||o------5-5-----|-5---------5--|
|----------||---------------|------5-5-----|


  Q.   E Q  Q    Q.   E Q  Q   3x Q.   E Q  Q    Q.   E Q  Q
|--------------|---------------||--------------|--------------*|
|-5---------4--|--------------o||-5---------4--|--------------*|
|------5-5-----|-5---------5--o||------5-5-----|-5---------5--*|
|--------------|------5-5------||--------------|------5-5-----*|


Duration Legend
---------------
W - whole; H - half; Q - quarter; E - 8th; S - 16th; T - 32nd; X - 64th; a - acciaccatura
+ - note tied to previous; . - note dotted; .. - note double dotted
Uncapitalized letters represent notes that are staccato (1/2 duration)
Irregular groupings are notated above the duration line
Duration letters will always appear directly above the note/fret number it represents the
duration for.  Duration letters with no fret number below them represent rests.  Multi-
bar rests are notated in the form Wxn, where n is the number of bars to rest for.  Low
melody durations appear below the staff

Tablature Legend
----------------
 h   - hammer-on
 p   - pull-off
 b   - bend
 pb  - pre-bend
 r   - bend release (if no number after the r, then release immediately)
 /\  - slide into or out of (from/to "nowhere")
 s   - legato slide
 S   - shift slide
  - natural harmonic
[n]  - artificial harmonic
n(n) - tapped harmonic
 ~   - vibrato
 tr  - trill
 T   - tap
 TP  - trem. picking
 PM  - palm muting
\n/  - tremolo bar dip; n = amount to dip
 \n  - tremolo bar down
 n/  - tremolo bar up
/n\  - tremolo bar inverted dip
 =   - hold bend; also acts as connecting device for hammers/pulls
 <>  - volume swell (louder/softer)
 x   - on rhythm slash represents muted slash
 o   - on rhythm slash represents single note slash

Misc Legend
-----------
 |  - bar
||  - double bar
||o - repeat start
o|| - repeat end
*|  - double bar (ending)
 :  - bar (freetime)
 $  - Segno
 &  - Coda
Tempo markers -  = BPM(8/16=s8/s16), where s8 = swing 8ths, s16 = swing 16ths



Well I wanna-wanna lotta-lotta lovin'
Well I wanna-wanna lotta-lotta huggin'
So baby can't you see that you were meant for me
I want your lovin', yes-a-ree.

Well I wanna-wanna lotta-lotta huggin'
Well I wanna-wanna lotta-lotta kissin'
So baby please proceed to get the love I need
I want your lovin' yes indeed.

Well, I want you, I love you, I need you so much
Why don't you give out with that magic touch
You send me, you thrill me, baby you're so fine
I want your lovin' baby all the time.

Well I wanna-wanna lotta-lotta lovin'
Well I wanna-wanna lotta-lotta kissin'
So baby don't forget I gonna get you yet
I want your lovin', aw you bet. (rock)

Well, I want you, I love you, I need you so much
Why don't you give out with that magic touch
You send me, you thrill me, baby you're so fine
I want your lovin' baby all the time

Well I wanna-wanna lotta-lotta lovin'
Well I wanna-wanna lotta-lotta huggin'
So baby don't forget I gonna get you yet
I want your lovin', aw you bet. (rock)

Well I wanna-wanna lotta lovin'
Well I wanna-wanna lotta huggin'
So baby don't forget I gonna get you yet
I want your lovin', aw you bet
Well, I need your lovin', aw you bet
Well, I want your lovin', aw you bet
Well, I need your lovin', aw you bet
Well, I want your lovin', aw you bet. Fade

            
            
Suggest correction
Creating personal tab
Creating personal tab
You can edit any tab online and save it as your Personal.

You can edit, replace or remove any tab part or add personal notes – all changes will be seen only by you.

Personal tabs can be accessed anytime from any device, even offline.
Learn more »
Give kudos to tab author, rate the tab!
1 2 3 4 5
comments
print report bad tab
guest
You may want to rate the tab now too:
select rating
Wanna post a correction for this tab? Suggest correction