Oops, an error
Loading. Please wait.

Say Mama bass

178 views 3 this week
no commentswrite comment
1 2 3 4 5
3 more votes to show rating
add to favorites
×
Save as Personal and add changes to this tab that will be seen only by you. Learn more ›
×
You can save this tab as Personal to edit and correct it or add notes. All changes will be seen only by you. Learn more »
launch autoscroll
font size
0
reset
guitar tuner
edit
Autoscroll
slow
fast
+/-
esc
set tempo
stop
Author
Say Mama
Single by Gene Vincent in 1958 that failed to chart in UK. 
Tab by bass50611.  What a great Rock n Roll song. Shame the UK 
Had no taste in 1958. Not exact as original as my poor old fingers 
Can’t play that fast these days LOL  Note the pause dots start of 
Each Verse, Comments bass254@btinternet.com 

Verse 1:
        ‘.’   ‘.’   
G|------------------------------------------------------55-4--------55-4--|
D|-----------------------------55-4--------55-4-------4-----7-----4-----7-|
A|-------------5-------------4-----7-----4-----7---5-----------5----------|
E|-0-2-4-5-----------0-2-4-5-----------5----------------------------------|

                                                                    (Pause)
G|---------------------------77-6--------55-4-----------------------------|
D|-----55-4------55-4------6-----9-----4-----7-----55-4-------------4-6-7-|
A|---4-----7---4-----7---7-----------5-----------4-----5---7-7-7-7-7------|
E|-5---------5---------------------------------5--------------------------|

Verse 2:
  ‘.’
G|-----------------------------------------55-4--------55-4-------------
D|-----------------55-4--------55-4------4-----7-----4-----7------55-4--
A|-5-------------4-----7-----4-----7---5-----------5------------4-----7-
E|-------0-2-4-5-----------5----------------------------------5---------

G|-----------------77-6-------55-4------------------------------|
D|-----55-4------6-----9----4-----7-----55-4--------------------|
A|---4-----7---7----------5-----------4-----5---7-7-7-7-7-7-7-7-|
E|-5--------------------------------5---------------------------|

Sax Solo:
G|---------------------------------------------------55-4--------55-4--|
D|-----55-4-------55-4-------55-4--------55-4------4-----7-----4-----7-|
A|---4-----7----4-----7----4-----7-----4-----7---5-----------5---------|
E|-5----------5----------5------------5--------------------------------|

                                                                    (Pause)
G|---------------------------77-6--------55-4-----------------------------|
D|-----55-4------55-4------6-----9-----4-----7-----55-4-------------4-6-7-|
A|---4-----7---4-----7---7-----------5-----------4-----5---7-7-7-7-7------|
E|-5---------5---------------------------------5--------------------------|

Verse 3:
  ‘.’
G|-----------------------------------------55-4--------55-4-------------
D|-----------------55-4--------55-4------4-----7-----4-----7------55-4--
A|-5-------------4-----7-----4-----7---5-----------5------------4-----7-
E|-------0-2-4-5-----------5----------------------------------5---------

G|-----------------77-6-------55-4------------------------------|
D|-----55-4------6-----9----4-----7-----55-4--------------------|
A|---4-----7---7----------5-----------4-----5---7-7-7-7-7-7-7-7-|
E|-5--------------------------------5---------------------------|



Guitar Solo:
G|---------------------------------------------------55-4--------55-4--|
D|-----55-4-------55-4-------55-4--------55-4------4-----7-----4-----7-|
A|---4-----7----4-----7----4-----7-----4-----7---5-----------5---------|
E|-5----------5----------5------------5--------------------------------|

                                                                    (Pause)
G|---------------------------77-6--------55-4-----------------------------|
D|-----55-4------55-4------6-----9-----4-----7-----55-4-------------4-6-7-|
A|---4-----7---4-----7---7-----------5-----------4-----5---7-7-7-7-7------|
E|-5---------5---------------------------------5--------------------------|

Verse 4:
  ‘.’
G|-----------------------------------------55-4--------55-4-------------
D|-----------------55-4--------55-4------4-----7-----4-----7------55-4--
A|-5-------------4-----7-----4-----7---5-----------5------------4-----7-
E|-------0-2-4-5-----------5----------------------------------5---------

G|-----------------77-6-------55-4------------------------|
D|-----55-4------6-----9----4-----7-----55-4--------55-4--|
A|---4-----7---7----------5-----------4-----5-----4-----7-|
E|-5--------------------------------5-----------5---------|

Outro:
G|-----77-6-------55-4------------------------|
D|---6-----9----4-----7-----55-4--------55-4--|
A|-7----------5-----------4-----5-----4-----7-|
E|----------------------5-----------5---------|

                                     (End)
G|-----77-6-------55-4-----------------|
D|---6-----9----4-----7--------------7-|
A|-7----------5-----------4-5-6-7--7---|
E|----------------------5--------------|

‘.’ Donates pause 


Say mama, can I go out tonight?
Say mama, will it be alright?
They got a rockin' party goin' down the street
Say mama, can't you hear that beat?
Woa, woah, woa-hoo-hoo-hoo, woa, woah, woa-hoo-hoo-hoo, woah, yeah.

Say mama, don't you look that way
'cause I know just what you're going to say
Well mama, well don't be mad
You're gonna say, go ask your dad
Woa, woah, woa-hoo-hoo-hoo, woa, woah, woa-hoo-hoo-hoo, woah
(aww... Go)

Say mama, don't you look that way
'cause I know just what you're going to say
Well mama, well don't be mad
You're gonna say, go ask your dad
Woa, woah, woa-hoo-hoo-hoo, woa, woah, woa-hoo-hoo-hoo, woa.
(all right now)

Yeah, say mama, can I go out tonight?
Say, mama, will it be alright?
They got a rockin' party goin' down the street
Say mama, can't you hear that beat?
Woa, woah, woa-hoo-hoo-hoo, woa, woah, woa-hoo-hoo-hoo, woa
Yeah, woa, woah, woa-hoo-hoo-hoo, woa, woah, woa-hoo-hoo-hoo, woa
Yeah, woa, woah, woa-hoo-hoo-hoo, woa, woah, woa-hoo-hoo-hoo, woa.
Suggest correction
Creating personal tab
Creating personal tab
You can edit any tab online and save it as your Personal.

You can edit, replace or remove any tab part or add personal notes – all changes will be seen only by you.

Personal tabs can be accessed anytime from any device, even offline.
Learn more »
Give kudos to tab author, rate the tab!
1 2 3 4 5
comments
print report bad tab
guest
You may want to rate the tab now too:
select rating
Wanna post a correction for this tab? Suggest correction