Oops, an error
Loading. Please wait.

Cristo Vive Hoy Tab

46 views 1 this week
no commentswrite comment
1 2 3 4 5
3 more votes to show rating
add to favorites
launch autoscroll
font size
0
reset
how to read this tab
guitar tuner
Autoscroll
slow
fast
+/-
esc
set tempo
stop
Help us to improve Ultimate-Guitar.com Take our survey!
×
Intro

e|--1---------------------------------------------------
b|--1--2--3--1------------------------------------------
g|--------------2--3--0---------------------------------
D|-----------------------2--3--0------------------------
A|---------------------------------1--2--3---------------
E|------------------------------------------------------

bajeo
e-------------------------------------------------------------
b-------------------------------------------------------------
g-------------------------------------------------------------
D-------------------------------------------------------------
A-----------------2-2---4-2-------------------2-2---4-2-------
E---0-0---4-4------------------0-0----4-4---------------------

e-------------------------------------------------------------
b-------------------------------------------------------------
g-------------------------------------------------------------
D----------------2-2---4-2----------------2-2---4-2-----------
A----0-0---4-4--------------0-0---4-4-------------------------
E

E               A
Cristo vive hoy
                 E
En la tumba no esta
A                               E
El resucito, la victoria El no dio
    B               A
Conforme a la escritura
                    E  E-A-B
Al tercer día resucito

E                A
Su sangre derramo
                   E
Para darnos salvación
   A                            E
Su vida entrego, El lo hizo por amor
 B          A
Cristo vive hoy
                  E   E-A-B
A la muerte El venció

  E             A
Si aceptas a Jesús
                    E
Vida eterna El te dará
   A
Y nunca, nunca más tu solo estarás
     B                  A
Pues Cristo esta a tu lado
                E  E-A-B
Tu amigo fiel será
Suggest correction
Give kudos to tab author, rate the tab!
1 2 3 4 5
comments
print report bad tab
guest
You may want to rate the tab now too:
select rating
Wanna post a correction for this tab? Suggest correction