Oops, an error
Loading. Please wait.

Maranatha Tab

44 views 1 this week
no commentswrite comment
1 2 3 4 5
3 more votes to show rating
add to favorites
launch autoscroll
font size
0
reset
how to read this tab
guitar tuner
×
Best way to learn
"Maranatha"
Autoscroll
slow
fast
+/-
esc
set tempo
stop
Intro

e   -----------------------------------------------------------
B  ------------------------------------------------------------
G  -7v---5------------------------5-7v-7v-7v-5-----------------
D  --------7-5-7-------------5-7------------------7-5-7--------
A  -----------------------5-7----------------------------------
E  ------------------5-7---------------------------------------

e---------------------------------------------------------------
B---------------------------------------------------------------
G------5------5-----5------------5-7v-5v------------------------
D---7-7---7-7---7-7---7-5--5-7-----------7v-5v------------------
A-------------------------7------------------------7v-5v--------
E----------------------------------------------------------7v-5-


Solo

e -12------12-10-----------------10----------------
B ---------------13-10---10-13------13-10---10-----
G ----------------------12--------------------12---
D -------------------------------------------------
A -------------------------------------------------
E -------------------------------------------------

e--------------------------------------------------
B-----------------------------10-13-13-13----------
G--9----------------9---12-------------------------
D----12-10---10-12---------------------------------
A----------12--------------------------------------
E--------------------------------------------------


e-10--12-12-12-12-12-12-12-12-12-12-12-12-
E------------------------------------------------------
G------------------------------------------------------
D------------------------------------------------------
A------------------------------------------------------
E------------------------------------------------------

e-10------------------10-12-----------------------
E----13-10---10-13--------------------------------
G-----------12------------------------------------
D-------------------------------------------------
A-------------------------------------------------
E-------------------------------------------------


e-10----10-----10-10---------------------------
E-----13------13---------13-10-----10-10-10----
G--------------------------------12------------
D----------------------------------------------
A----------------------------------------------
E----------------------------------------------


e-------------------------------------------------
E-10-10-10-10-10-10-10----------------------------
G----------------------------12-------------------
D-------------------------------------------------
A-------------------------------------------------
E-------------------------------------------------


e-----------------------------------------------------
B-----------------10-----10---------------------------
G-9-----------12------------12--9---------------------
D---12-12--------------------------12-----------------
A-----------------------------------------------10-12-
E----------------------------------------10-12--------


e------------------------------------------------------
B------------------------------------------------------
G------------------------------------------------------
D-10-12-12-12------------10-12-10-12-10----------------
A----------------12-10-12------------------------------
E------------------------------------------------------


A-12-10-12-10-----------------------------
E-----------------12-10-7-5---------------


 VER VIDEO DE TUTORIAL,
 
 


Ojala les ayude
Suggest correction
Give kudos to tab author, rate the tab!
1 2 3 4 5
comments
print report bad tab
guest
You may want to rate the tab now too:
select rating
Wanna post a correction for this tab? Suggest correction