Oops, an error
Loading. Please wait.

Mi Dios Es Real Tab

133 views 1 this week
no commentswrite comment
1 2 3 4 5
3 more votes to show rating
add to favorites
launch autoscroll
font size
0
reset
how to read this tab
guitar tuner
×
Best way to learn
"Mi Dios Es Real"
Autoscroll
slow
fast
+/-
esc
set tempo
stop
Aqui les dejo la intro de Mi Dios es real


E||----------------------------------------------------------------------|
B||---------------------2-2----2-----------------------------------------|
G||--------------------------4---4--2------2---2-------6-5-3--6-5-3------|
D||--2--2-4-3-4-3-2--------------------------4-----------------------5---|
A||----------------------------------------------------------------------|
E||----------------------------------------------------------------------|

E||----------------------------------------------------------------------|
B||-------------------5--------------------------------------------------|
G||--2---2-4-2-4-6------6-----------------4-2---2------------------------|
D||-------------------------0-0-2---2-2-6---------4-2-4---2--------------|
A||---------------------------------------------------------4-2-0--------|
E||----------------------------------------------------------------------|
Suggest correction
Give kudos to tab author, rate the tab!
1 2 3 4 5
comments
print report bad tab
guest
You may want to rate the tab now too:
select rating
Wanna post a correction for this tab? Suggest correction