Oops, an error
Loading. Please wait.

Take Back The Instant Bass Tab

31 views 3 this week
no commentswrite comment
1 2 3 4 5
3 more votes to show rating
add to favorites
launch autoscroll
font size
0
reset
guitar tuner
Autoscroll
slow
fast
+/-
esc
set tempo
stop
Help us to improve Ultimate-Guitar.com Take our survey!
×
Author
Difficulty
intermediate
About this tab version
In the song you can hear the "clavinette" (synth use) with a similar bassline. To groove the most, make sure do follow its rhythm, even if I tried to be as precise as can. (sorry for english mistakes btw). Was this info helpful? Yes No
Artist :General Elektriks
Album : Good City For Dreamers
Song : Take Back The Instant




[Intro] : 
0:25

G|-------------------|
D|-------------------|
A|-------------------|
E|-------------/15\--|


[Verse]

G|-------------------|--------------------|-------------------|--------------------|
D|-------------------|--------------------|-------------------|--------------------|
A|-------------------|--------------------|-------------------|--------------------|
E|1-1r---x-1-1--1--3-|4-4r-----4-4r---4---|9-9r-----9-9r-9--8-|7-7r-----8-8r-------|

G|-------------------|--------------------|-------------------|--------------------|
D|---------3---------|--------------------|-------------------|--------------------|
A|-------------------|--------------------|4-4r-----4-4r-4----|5-5----5-7-7--------|
E|1-1r-------1--1--3-|4-4r-----4-4r---4---|-------------------|--------------------|

G|-------------------|--------------------|-------------------|--------------------|
D|-------------------|--------------------|-------------------|--------------------|
A|-------------------|--------------------|-------------------|--------------------|
E|1-1r---x-1-1--1--3-|4-4r-----4-4r---4---|9-9r-----9-9r-9--8-|7-7r-----8-8r---4\--|

G|-------------------|--------------------|-------------------|--------------------|
D|-------------------|--------------------|-------------------|--------------------|
A|-------------------|--------------------|4-4r-----4-4r-4----|5-5----5-7-7------7-|
E|1-1r---x-1-1--1--3-|4-4r-----4-4r---4---|-------------------|--------------------|

G|-------------------|--------------------|-------------------|--------------------|
D|-------------------|--------------------|-------------------|--------------------|
A|8\-----------------|--------------------|-------------------|--------------------|
E|----1--x-1-1--1--3-|4-4r-----4-4r---4---|9-9r-----9-9r-9--8-|7-7r-----8r---------|

G|-------------------|--------------------|-------------------|--------------------|
D|-------------------|--------------------|-------------------|--------------------|
A|-------------------|--------------------|4-4r-----4-4r-4----|5-5----5-7-7--------|
E|1-1r---x-1-1--1--3-|4-4r-----4-4r---4---|-------------------|--------------------|



[Interlude]

G|-------------------|--------------------|--------------------|-------------------|
D|-------------------|--------------------|--------------------|-------------------|
A|8------------------|--------------------|--------------------|-------------------|
E|-------------------|4-------------------|9-------------------|7-------8----------|

G|-------------------|--------------------|--------------------|-------------------|
D|-------------------|--------------------|--------------------|-------------------|
A|-------------------|--------------------|4-------------------|10-10--------------|
E|1------------------|4-------------------|--------------------|---------12-12-12\-|


[Verse]
G|-------------------|--------------------|-------------------|--------------------|
D|-------------------|--------------------|-------------------|--------------------|
A|-------------------|--------------------|-------------------|--------------------|
E|1-1r---x-1-1--1--3-|4-4r-----4-4r---4---|9-9r-----9-9r-9--8-|7-7r---7-8-8r-------|

G|-------------------|--------------------|-------------------|--------------------|
D|-------------------|--------------------|-------------------|--------------------|
A|-------------------|----------------2-3-|4-4r-----4-4r-4----|5-5----5-7-7--------|
E|1-1r---x-1-1--1--3-|4-4r-----4-4r-------|-------------------|--------------------|

G|-------------------|--------------------|-------------------|--------------------|
D|-------------------|--------------------|-------------------|--------------------|
A|3-------------------|--------------------|-------------------|--------------------|
E|--1r---x-1-1--1--3-|4-4r-----4-4r---7-8-|9-9r-----9-9r-9--8-|7-7r---7-8-8r---4\--|

G|-------------------|--------------------|-------------------|--------------------|
D|-------------------|--------------------|-------------------|--------------------|
A|-------------------|--------------------|4-4r-----4-4r-4----|5-5----5-7-7--------|
E|1-1r---x-1-1--1--3-|4-4r-----4-4r---4---|-------------------|--------------------|

G|-------------------|--------------------|-------------------|--------------------|
D|-------------------|--------------------|-------------------|--------------------|
A|8\-----------------|--------------------|-------------------|--------------------|
E|----1--x-1-1--1--3-|4-4r-----4-4r---4---|9-9r-----9-9r-9--8-|7-7r---7-8-8r-------|

G|-------------------|--------------------|-------------------|--------------------|
D|-------------------|--------------------|-------------------|--------------------|
A|-------------------|--------------------|4-4r-----4-4r-4----|5-5----5-7-7--------|
E|1-1r---x-1-1--1--3-|4-4r-----4-4r---4---|-------------------|--------------------|

G|-------------------|--------------------|-------------------|--------------------|
D|-------------------|--------------------|-------------------|--------------------|
A|3------------------|--------------------|-------------------|--------------------|
E|--1r---x-1-1--1--3-|4-4r-----4-4r---4---|9-9--x-9-9-------x-|8-8---x-6-6---------|

G|-------------------|
D|-------------------|
A|-------------------|
E|8------------------|


[Outro]

G|-------------------|--------------------|--------------------|-------------------|
D|-------------------|--------------------|--------------------|-------------------|
A|-------------------|--------------------|--------------------|-------------------|
E|1------------------|4-------------------|9-------------------|7-------8----------|

G|-------------------|--------------------|--------------------|-------------------|
D|-------------------|--------------------|--------------------|-------------------|
A|-------------------|--------------------|4-------------------|5-------7----------|
E|1------------------|4-------------------|--------------------|-------------------|

G|-------------------||
D|-------------------||
A|8-----------------\||
E|-------------------||




************************************

| x   Dead note
| h   Hammer-on
| p   Pull-off
| r   Release
| /   Slide up
| \   Slide down

************************************
Suggest correction
Give kudos to tab author, rate the tab!
1 2 3 4 5
comments
print report bad tab
guest
You may want to rate the tab now too:
select rating
Wanna post a correction for this tab? Suggest correction